Oops, an error
Loading. Please wait.

Entre Remolinos tab

version 2
version 2

Whole song

125 views 6 this week
no commentswrite comment
1 2 3 4 5
3 more votes to show rating
add to favorites
×
Save as Personal and add changes to this tab that will be seen only by you. Learn more ›
×
You can save this tab as Personal to edit and correct it or add notes. All changes will be seen only by you. Learn more »
launch autoscroll
font size
0
reset
how to read this tab
guitar tuner
edit
Autoscroll
slow
fast
+/-
esc
set tempo
stop
Acordes Iniciales esto va en las estrofas.
     F#7add  F#/G#   C#m13
E||--0----|--2----|--0----|------|------|------||
B||--0----|-------|--0----|------|------|------||
G||--3----|--3----|--3----|------|------|------||
D||--4----|--4----|--4----|------|------|------||
A||--4----|-------|--4----|------|------|------||
E||--0----|--4----|--2----|------|------|------||


E||-----------------0----|----------------------|------------1---------|
B||------------0---------|-------0--------------|-------0--------------|
G||-------3--------------|--3---------3---------|--3--------------3----|
D||----------------------|----------------------|----------------------|
A||----------------------|----------------------|----------------------|
E||--0-------------------|-----------------4----|----------------------|


----------------------|--1-------------------|------||
--0--------------0----|------------0---------|------||
-------3----3---------|-------3---------3----|------||
----------------------|----------------------|------||
----------------------|----------------------|------||
----------------------|----------------------|------||

F#7add                    F#/G#
Dejo caer en mi arena sus pies
F#7add                    F#/G#
Dejo saber en mis labios su sed
F#7add                    F#/G#
Juntos probamos la noche el suave murmullo el imán y la flor
F#7add                    F#/G#          F#7add
Fuimos casi un muro casi viento casi sal fuimos casi nada y todo
      F#/G#       C#m13
De una sola vez todo de una sola vez

F#7add                    F#/G#
Los dedos Iván tanteando entre piel y piel
F#7add                    F#/G#
Era el reconocimiento de sudores de su nombre
F#7add                    F#/G#   F#7add
Fuimos casi un muro casi viento casi sal fuimos casi nada y todo
F#/G#        C#m13     F#7add    F#/G#             C#m13
De una sola vez de    una sola vez de una sola vez?(rasgado el acorde)

     MI     F#/G#   C#m     A#m/5 
E||--0----|--2----|--0----|--2----|------|------||
B||--0----|-------|--0----|--2----|------|------||
G||--1----|--3----|--3----|--3----|------|------||
D||--2----|--4----|--4----|-------|------|------||
A||--2----|-------|--4----|--4----|------|------||
E||--0----|--4----|--2----|--2----|------|------||


   MI                 F#/G#                  C#m     A#m/5 
Coro: y  nos quedamos ahí como bordando el dolor
                A#m/5                   MI
como sacando del mar el rostro para llorar
MI            F#/G#                     C#m
y nos quedamos ahí con la cerzteza de estar
           A#m/5                 MI  (A#M/5  MI)..
enredados entre remolinos y su amor

ESTA PERFECTA. GRACIAS RAMON.. HASTA SIMPRE

            
            
Suggest correction
Creating personal tab
Creating personal tab
You can edit any tab online and save it as your Personal.

You can edit, replace or remove any tab part or add personal notes – all changes will be seen only by you.

Personal tabs can be accessed anytime from any device, even offline.
Learn more »
Give kudos to tab author, rate the tab!
1 2 3 4 5
comments
print report bad tab
guest
Wanna post a correction for this tab? Suggest correction