Oops, an error
Loading. Please wait.

Storms tab

version 1
version 1

Whole song

2,588 views 3 this week
1 commentread comment
1 2 3 4 5
x 3
add to favorites
×
Save as Personal and add changes to this tab that will be seen only by you. Learn more ›
×
You can save this tab as Personal to edit and correct it or add notes. All changes will be seen only by you. Learn more »
launch autoscroll
font size
0
reset
how to read this tab
guitar tuner
edit
Autoscroll
slow
fast
+/-
esc
set tempo
stop
Author
INTRO
Mess around with this
e---0-2---|
B-0-----3-|
G---------|
D---------|
A---------|
E---------|

VERSE 1 x12
Guitar 1
e---------------------------|
B---------------------------|
G---------------99-1111-9---|
D-77-7-7---77-7-xx-x-x--x---|
A-55-5-5---55-5-77-9-9--7---|
E-33-3-3---33-3-------------|

Guitar 2
e-------------------------|
B-------------------------|
G-------------------------|
D-99-7-9---99-7-----------|
A----------------7h9-99-7-|
E-------------------------|

CHORUS
Guitar 1
      x4       x2
e----------]--------------------------|
B----3-----]--------------------------|
G--------2-]---------------99-1111-9--|
D----------]-77-7-7---77-7-xx-x-x--x--|
A-2----2---]-55-5-5---55-5-77-9-9--7--|
E----------]-33-3-3---33-3------------|

Guitar 2
      x4
e-------------------]-------------------------------------------------------|
B-------------------]-------------------------------------------------------|
G-------------------]------------------------------------------9h11-11-11p9-|
D-----7h9-----7h9p7-]-99-7-9---99-7--------------99-7-9---99-7--------------|
A-7h9-----7h9-------]-----------------7h9-99-7------------------------------|
E-------------------]-------------------------------------------------------|

Guitar 1
    x4         x2
e--------0-]--------------------------|
B----3-----]--------------------------|
G----------]---------------99-1111-9--|
D----------]-77-7-7---77-7-xx-x-x--x--|
A-2----2---]-55-5-5---55-5-77-9-9--7--|
E----------]-33-3-3---33-3------------|

Guitar 2
     x4
e-------------------|
B-------------------|
G-------------------|
D-----7h9-----7h9p7-|
A-7h9-----7h9-------|
E-------------------|

e---------------------------------------------------------|
B------7---7-9------9h11-11-11-9-------7----7-9-----------|
G-7h9----9-----99-7----------------7h9----9-----99-7------|
D----------------------------------------------------9999-|
A---------------------------------------------------------|
E---------------------------------------------------------|


VERSE 2
Guitar 2
e-------------------------|
B-------------------------|
G-------------------------|
D-99-7-9---99-7-----------|
A----------------7h9-99-7-|
E-------------------------|

Guitar 1 joins in after 4 plays x3
e---------------|
B---------------|
G---------------|
D-77-7-7---77-7-|
A-55-5-5---55-5-|
E-33-3-3---33-3-|

x4
e---------------------------|
B---------------------------|
G---------------99-1111-9---|
D-77-7-7---77-7-xx-x-x--x---|
A-55-5-5---55-5-77-9-9--7---|
E-33-3-3---33-3-------------|


Repeat Chorus


BRIDGE
Guitar 1
  x2
e----------------------------|
B----------------------------|
G----------------------------|
D----------------------------|
A-----0-2-4-5-7-9-12-10-12-9-|
E-2-3------------------------|

Guitar 1+2
e----------------------------------------------|
B----------------------------------------------|
G------------------------------999-999-999-999-|
D------------------------------999-999-999-999-|
A-----0-2-4-5-7-9-12-10-12-9---777-777-777-777-|
E-2-3------------------------------------------|

x4
Guitar 1
e---------------------------|
B---------------------------|
G---------------99-1111-9---|
D-77-7-7---77-7-xx-x-x--x---|
A-55-5-5---55-5-77-9-9--7---|
E-33-3-3---33-3-------------|

Guitar 2
e-------------------------|
B-------------------------|
G-------------------------|
D-99-7-9---99-7-----------|
A----------------7h9-99-7-|
E-------------------------|

FINAL CHORUS
Guitar 1
      x4       x2
e--------0-]--------------------------|
B----3-----]--------------------------|
G----------]---------------99-1111-9--|
D----------]-77-7-7---77-7-xx-x-x--x--|
A-2----2---]-55-5-5---55-5-77-9-9--7--|
E----------]-33-3-3---33-3------------|

Guitar 2
      x4               x2
e-------------------]------------------------|
B-------------------]------------------------|
G-------------------]------------------------|
D-----7h9-----7h9p7-]------------------------|
A-7h9-----7h9-------]-99-7-9---99-7-9-7------|
E-------------------]-------------------10-7-|

Guitar 1
      x4       x4
e--------0-]--------------------------|
B----3-----]--------------------------|
G----------]---------------99-1111-9--|
D----------]-77-7-7---77-7-xx-x-x--x--|
A-2----2---]-55-5-5---55-5-77-9-9--7--|
E----------]-33-3-3---33-3------------|

Guitar 2
      x4               x4
e-------------------]--------------------------|
B-------------------]--------------------------|
G-------------------]--------------------------|
D-----7h9-----7h9p7-]-99-7-9---99-7------------|
A-7h9-----7h9-------]-----------------7h9-99-7-|
E-------------------]--------------------------|

OUTRO x4
Guitar 1
e---------------------------|
B---------------------------|
G---------------99-1111-9---|
D-77-7-7---77-7-xx-x-x--x---|
A-55-5-5---55-5-77-9-9--7---|
E-33-3-3---33-3-------------|

Guitar 2
e-------------------------|
B-------------------------|
G-------------------------|
D-99-7-9---99-7-----------|
A----------------7h9-99-7-|
E-------------------------|

            
            
Suggest correction
Creating personal tab
Creating personal tab
You can edit any tab online and save it as your Personal.

You can edit, replace or remove any tab part or add personal notes – all changes will be seen only by you.

Personal tabs can be accessed anytime from any device, even offline.
Learn more »
Give kudos to tab author, rate the tab!
1 2 3 4 5
comments
print report bad tab
1 comment total.
0 reply
bensg 10 Nov 01, 2009 09:11 PM

it's a lot easier in drop d, and the second half of your guitar 1 verse is way off.

****drop D
E----------------------------------------
B----------------------------------------
G-(4)-(4)-(4)(4)-(4)-(4)-----------------
D--7---7---7--7---7---7---7---7-7-7-7-7-x
A--5---5---5--5---5---5---5---9-9-9-9-9-x
E--5---5---5--5---5---5---7---7-7-7-7-7-x

guest
You may want to rate the tab now too:
select rating
Wanna post a correction for this tab? Suggest correction