Oops, an error
Loading. Please wait.

No Valgo Nada bass

by Pesado
44 views 3 this week
no commentswrite comment
1 2 3 4 5
3 more votes to show rating
add to favorites
×
Save as Personal and add changes to this tab that will be seen only by you. Learn more ›
×
You can save this tab as Personal to edit and correct it or add notes. All changes will be seen only by you. Learn more »
launch autoscroll
font size
0
reset
guitar tuner
edit
Autoscroll
slow
fast
+/-
esc
set tempo
stop
kiubo raza!!! ke onda!
pues aqui con otro tabb.. de esta rola ke me gusta mucho , esta chida.
El bajo va sencillo. Esta 99.99% correcta.

Intro

G--------2-5----------2-5-----------
D-10s3-3---------7--3---------------
A------------5-8-----------55-3-----
E-------------------------------6-5-


G---------------------------------7-5-5    ---------
D-3-3-----5----------------5-3--3-------   -----2-3- 
A--3-3-4-5-5-----0-1--1-1------3--------   -3-5----- x2 (la 2a vez esto separado no lo da)
E------------1-3-----1------------------   ---------      porque da pasatono a la#
 

' que me destruye....'
G------------
D------------
A-----0-1--3-
E-1-3--------


' de nada me sirve llorar....'     *(aqui chequen bien el ritmo porque cambia)
G---------------------------------7-55-----------
D-3-3----------------------5-3--3------------2-3-  
A--3-3---5-5-----0-1--1-1------3---------3-5-----   
E---------5--1-3-----1---------------------------  

G--------------------------15-------7-5-5----------
D-3-3------------------------15---3------------2-3-
A--3-3---5-5-----0-1--1-1--------3---------3-5-----
E---------5--1-3-----1-----------------------------


 *1:08 (acordeon)

G----2-5----------2-5-----------------------------7-55---------
D--3---------7--3------------------3s5-3----3---3----------2-3-
A--------5-8-----------55------0-1-------1-5--3--------3-5-----
E--------------------------1-3---------------------------------
 
 G---------------------------------7-55----------------
D-3-3----------------------5-3--3--------------------- 
A--3-3---5-5-----0-1--1-1------3---------33333333333--   
E---------5--1-3-----1--------------------------------


'de nada me sirve llorar...'
G---------------------------------7-55-----------
D-3-3----------------------5-3--3------------2-3-  
A--3-3---5-5-----0-1--1-1------3---------3-5-----   
E---------5--1-3-----1---------------------------  

G--------------------------15-------7-5-5----------
D-3-3------------------------15---3------------2-3-
A--3-3---5-5-----0-1--1-1--------3---------3-5-----
E---------5--1-3-----1-----------------------------

 
*OUTRO (salida)

G---2-5----------------------
D-3---------7---0-3---------- 
A-------5-8---1-----33-2----- x veces (hasta ke termina).
E------------------------5-3-
 

Es todo!!! Listo, nomas chequen los tiempos.

Tab Hecha por -Jesús Treviño-

mail: chuy_nomas@
msn : greendayok@

            
            
Suggest correction
Creating personal tab
Creating personal tab
You can edit any tab online and save it as your Personal.

You can edit, replace or remove any tab part or add personal notes – all changes will be seen only by you.

Personal tabs can be accessed anytime from any device, even offline.
Learn more »
Give kudos to tab author, rate the tab!
1 2 3 4 5
comments
print report bad tab
guest
Wanna post a correction for this tab? Suggest correction