Oops, an error
Loading. Please wait.

Algo Flota En La Laguna bass

245 views 3 this week
no commentswrite comment
1 2 3 4 5
2 more votes to show rating
add to favorites
×
Save as Personal and add changes to this tab that will be seen only by you. Learn more ›
×
You can save this tab as Personal to edit and correct it or add notes. All changes will be seen only by you. Learn more »
launch autoscroll
font size
0
reset
guitar tuner
edit
Autoscroll
slow
fast
+/-
esc
set tempo
stop
Esta tab esta mas prolija y tiene corregidos algunos errores que tenia
la otra.

            ?Algo flota en la laguna?    ?con su rayo lo enloquece yee!!?
                    5 veces
G|-------|--------------------------------|------------------------------
D|-------|------------2-2-----------------|------------2-2-------------2-
A|--5/3--|-0--3-3-0-0-----5-5-3-3-5-5-3-3-|-0--3-3-0-0-----5-5-3-3-5-5---
E|-------|---0----------------------------|---0--------------------------

G|--------------------------------------------------------
D|-----5-----3h5-55555555555----5-----3h5-555555h7-5h7-5h7
A|-7---3-3------------------7---3-3-----------------------
E|-5------------------------5-----------------------------

G|--------------------------------------------------------|
D|-----5-----3h5-55555555555----5-----3h5-55555555555-----|
A|-7---3-3------------------7---3-3-----------------------|
E|-5------------------------5-----------------------------|

     ?Para el tiempo de la pesca?  ?justo es el que quiera echarlo yee!!?
            5 veces
G|--------------------------------|------------------------------
D|------------2-2-----------------|------------2-2-------------2-
A|-0--3-3-0-0-----5-5-3-3-5-5-3-3-|-0--3-3-0-0-----5-5-3-3-5-5---
E|---0----------------------------|---0--------------------------

G|--------------------------------------------------------
D|-----5-----3h5-55555555555----5-----3h5-555555h75h75h7--
A|-7---3-3------------------7---3-3-----------------------
E|-5------------------------5-----------------------------

G|--------------------------------------------------------|
D|-----5-----3h5-55555555555----5-----3h5-55555555555-----|
A|-7---3-3------------------7---3-3-----------------------|
E|-5------------------------5-----------------------------|

(empieza el solo del flaco)
G|---------------------------------------------------
D|-------------------------------------------5h7-----
A|-5-55-55-55-53-33-33-33-3--------------5h7-----5h7-
E|-------------------------6-66-66-66-65-------------

G|-------------------------------------------------
D|-------------------------------------------------
A|-5-55-55-55-53-33-33-33-3----------------2--3--4-
E|-------------------------6-66-66-66-65-5---------

G|-------------------------------------------------
D|----7-7---7-7---5-5---5-5------------------------
A|-5-5---5-5---3-3---3-3------8-8---8-8---2-23-34-4
E|-------------------------6-6---6-6---5-5---------

G|-------------------------------------------------
D|----7-7---7-7---5-5---5-5------------------------
A|-5-5---5-5---3-3---3-3------8-8---8-8---2-23-34-4
E|-------------------------6-6---6-6---5-5---------

G|-------------------------------------------------
D|----7--------------------------------------------
A|-5-5--55-55-53-33-33-33-3----------------2--3--4-
E|-------------------------6-66-66-66-65-5---------

G|-------------------------------------------------
D|-------------------------------------------------
A|-5-55-55-55-53-33-33-33-3----------------2--3--4-
E|-------------------------6-66-66-66-65-5---------

G|------------------------------------------------------------------
D|--------------------------------------------------------------4---
A|-5--0--3-5--0350355----5--0--3-5--0350355----7-----5-7--035035----
E|------------------------------------------------7-----------------

     ?la caridad??
G|--------------------------------------------------
D|-7------------------------------------------------
A|---5--5----4--4-----------------------------------
E|-------------------3--0-3-0-3-0-3-0-3-0-3-0-3-0-3-

     ?la tempestad??
G|--------------------------------------------------
D|--------------------------------------------------
A|---5--5----4--4-----------------------------------
E|-------------------3--0-3-0-3-0-3-0-3-0-3-0-3-0-3-

          ?uohoo!!, uohoo!!?
                  2 veces
G|-------------------------------------------|------
D|-------------------------------------------|4-----
A|-----------5--5------------0-2----------0-2|------
E|---0--0------------0-1-2-4-----0-01-2-4----|------

     ?Nunca se sabra la causa?    ?lleva su venganza a cabo yee!!?
            5 veces
G|--------------------------------|------------------------------
D|------------2-2-----------------|------------2-2-------------2-
A|-0--3-3-0-0-----5-5-3-3-5-5-3-3-|-0--3-3-0-0-----5-5-3-3-5-5---
E|---0----------------------------|---0--------------------------

G|--------------------------------------------------------
D|-----5-----3h5-55555555555----5-----3h5-555555h75h75h7--
A|-7---3-3------------------7---3-3-----------------------
E|-5------------------------5-----------------------------

G|--------------------------------------------------------|
D|-----5-----3h5-55555555555----5-----3h5-55555555555-----|
A|-7---3-3------------------7---3-3-----------------------|
E|-5------------------------5-----------------------------|

G|---------------------------------------------------
D|-------------------------------------------5h7-----
A|-5-55-55-55-53-33-33-33-3--------------5h7-----5h7-
E|-------------------------6-66-66-66-65-------------

G|----------------------------------------------------
D|----------------------------------------------------
A|-5-55-55-55-53-33-33-33-3-----------------2---3---4-
E|-------------------------6-66-66-66-65-5-2---3---4--

G|-----------------------------------------------
D|----7-7---7-7---5-5---5-5----------------------
A|-5-5---5-5---3-3---3-3------8-8---8-8--2--3--4-
E|-------------------------6-6---6-6---5---------

G|--------7--------------5--------------3-------------------
D|----5h7---7-5-7----3h5---5-3-5----1h3---3-1-3-3--3-3--3-3-
A|-5-5------------3-3------------1-1------------------------
E|----------------------------------------------------------

G|-----------------------------------------------
D|----7-7---7-7---5-5---5-5----------------------
A|-5-5---5-5---3-3---3-3------8-8---8-8--2--3--4-
E|-------------------------6-6---6-6---5---------

G|-------------------------------------------------
D|-------------------------------------------------
A|-5-55-55-55-53-33-33-33-3----------------2--3--4-
E|-------------------------6-66-66-66-65-5---------

G|-------------------------------------------------   h: hammer on
D|-------------------------------------------------   /: slide
A|-5-55-55-55-53-33-33-33-3------------------------
E|-------------------------6-66-66-66-6------------

Algo flota en la laguna (Pescado Rabioso)

Algo flota en la laguna
Tiene forma indefinida
Y al hombre que pasa cerca
Con su rayo lo enloquece yee!!

Para el tiempo de la pesca
Todo ya estara perdido
Hay un monstruo en la laguna, uohoo!!
Junto es el que quiera echarlo, yee!!

La caridad de universo es falsa, falsa
La tempestad recoje a nidos

Nunca cesara la causa
De la voz en la leyenda
Para mi que la laguna, uohoo!!
Lleva su venganza a cabo, yee!!

Mientras su musica se siga tocando y escuchando el carpo jamas morira,
vivira eternamente en la memoria de todos...
e-mail: zarathustra4321@

            
            
Suggest correction
Creating personal tab
Creating personal tab
You can edit any tab online and save it as your Personal.

You can edit, replace or remove any tab part or add personal notes – all changes will be seen only by you.

Personal tabs can be accessed anytime from any device, even offline.
Learn more »
Give kudos to tab author, rate the tab!
1 2 3 4 5
comments
print report bad tab
guest
Wanna post a correction for this tab? Suggest correction