Oops, an error
Loading. Please wait.

Blues De Cris bass

version 1
version 1

Whole song

Interactive

235 views 1 this week
no commentswrite comment
1 2 3 4 5
3 more votes to show rating
add to favorites
×
Save as Personal and add changes to this tab that will be seen only by you. Learn more ›
×
You can save this tab as Personal to edit and correct it or add notes. All changes will be seen only by you. Learn more »
launch autoscroll
font size
0
reset
guitar tuner
edit
Autoscroll
slow
fast
+/-
esc
set tempo
stop
?Cansado  de gritar con Cris,         mi mente esta colgada como una arbol?
G|------------------------------------------------------------------------
D|-----------------------------5-4--5/d--------------------------4--5-----
A|7/d---0-----------------------------------------------------7--------5/d
E|-----(5)-0-3--0-2--0-5--3-2-------------5--0-3--0-2--0-5----------------
?Cansado de luchar por mi, atado a mi destino, al borde del camino vol-
G|----------------------------------------------------------------------
D|-----------------------------5-4--5/d---------------------------------
A|----------------------------------------7--------------5---5-3--------
E|------5--0-3--0-2--0-5--3-2-------------------7-----------------------
vere?
G|------------------------------------------------------------------------
D|-------------------------------------------------7-7-7-7-7-7------------
A|-------------------------------------------------------------7-7-7-5-5-5
E|-1-1-1-1-1-1-1--2--------2-2-2-2-2-2-2--3-------------------------------
?Y          si la ves pasar no habla y no habla,        es por que sabe que
G|-------------------------------------------------------------------------
D|-------------------------------------------------------------------------
A|-3---3------3---3------5---5------5---5---------------2--2-2--2-3--3-3--4
E|-------5--3-------5--3-------7--5-------7---3--3-3--3--------------------
atado a mi destino sus ojos al final olvidare?
G|---------------------------4-------------------
D|------------------------------9-8-7------------
A|---7--------------5---5-3-----------10-9-8-7/17
E|---------7------7------------------------------
?Cansado de gritar con Cris,          mi mente esta perdida como un arbol?
G|------------------------------------------------------------------------
D|-----------------------------5-4--5/d--------------------------4--5-----
A|------------------------------------------------------------7--------5/d
E|------5--0-3--0-2--0-5--3-2-------------5--0-3--0-2--0-5----------------
?Cansado de luchar por mi, atado a mi destino, al borde del camino vol-
G|----------------------------------------------------------------------
D|-----------------------------5-4--5/d---------------------------------
A|----------------------------------------7--------------5---5-3--------
E|------5--0-3--0-2--0-5--3-2-------------------7-----------------------
vere?
G|------------------------------------------------------------------------
D|-------------------------------------------------7-7-7-7-7-7------------
A|-------------------------------------------------------------7-7-7-5-5-5
E|-1-1-1-1-1-1-1--2--------2-2-2-2-2-2-2--3-------------------------------
?Y          si la ves pasar no habla y no habla,        es por que sabe que
G|-------------------------------------------------------------------------
D|-------------------------------------------------------------------------
A|-3---3------3---3------5---5------5---5---------------2--2-2--2-3--3-3--4
E|-------5--3-------5--3-------7--5-------7---3--3-3--3--------------------
atado a mi destino sus ojos al final olvidare?
G|---------------------------4--9-7--------------
D|----------------------------------9-8-7--------
A|---7--------------5---5-3---------------10-7/19
E|---------7------7------------------------------
                                         ?oh yee            oh yee!?
G|-------------------------------------------------------------------------
D|--------5------------9------7--------------------------------------------
A|-0------3-----7-10-7-9------5----7-9--7/d--7/d---------------------------
E|--------------------------------------0----0-----------------------------
                                            (empieza aca el solo del flaco)
G|-------------------------------------------------------------------------
D|--------5------------9------7--------------------------------------------
A|-0------3-----7-10-7-9------5----7-9--7/d--7/d---------------------10----
E|--------------------------------------0----0-----------------------------

G|-----------------------------------------------------------
D|-----------------------------------------------------------
A|------6--6-7--7-8--9------4--4-5--5----6-7--7-5--5-4-4-4-3-
E|-7--7----------------5--5----------------------------------

G|--------------------
D|--------------------
A|-2-2-----2------2---
E|-----5-4---5------5-
?Zumbando en mi caverna gris,            la voz de Cris me llega y no cesa?
G|------------------------------------------------------------------------
D|-----------------------------5-4--5/d--------------------------4--5-----
A|------------------------------------------------------------7--------5/d
E|------5--0-3--0-2--0-5--3-2-------------5--0-3--0-2--0-5----------------
?Oh, zumbando en mi caverna gris,    atado a mi destino, al borde?    ?vol-
G|----------------------------------------------------------------------
D|-----------------------------5-4--5/d---------------------------------
A|----------------------------------------7--------------5---5-3--------
E|------5--0-3--0-2--0-5--3-2-------------------7-----------------------
vere?
G|------------------------------------------------------------------------
D|-------------------------------------------------7-7-7-7-7-7------------
A|-------------------------------------------------------------7-7-7-5-5-5
E|-1-1-1-1-1-1-1--2--------2-2-2-2-2-2-2--3-------------------------------
?Y          si la ves pasar no habla y no habla,        es por que sabe que
G|-------------------------------------------------------------------------
D|-------------------------------------------------------------------------
A|-3---3------3---3------5---5------5---5---------------2--2-2--2-3--3-3--4
E|-------5--3-------5--3-------7--5-------7---3--3-3--3--------------------
atado a mi destino sus ojos al final olvidare?
G|---------------------------4--9-7--------------
D|----------------------------------9-8-7--------
A|---7--------------5---5-3---------------10-7/19
E|---------7------7------------------------------
                                         ?oh yee            oh yee!?
G|-------------------------------------------------------------------------
D|-7------5------------9------7--------------------------------------------
A|--------3-----7-10-7-9------5----7-9--7/d--7/d---------------------------
E|--------------------------------------0----0-----------------------------
                                                  (empieza el segundo solo)
G|-------------------------------------------------------------------------
D|-7------5------------9------7--------------------------------------------
A|--------3-----7-10-7-9------5----7-9--7/d--7/d-------------------10-7----
E|--------------------------------------0----0---------------------------10

G|------------------------------------------------------------
D|------------------------------------------------------------
A|------6--6-7--7-8--9------4--4-5--5-6--7-7-7-7-5--5-4-4-4-3-
E|-7--7----------------5--5-----------------------------------

G|---------------------
D|---------------------
A|-2-2-----2------2---2
E|-----5-4---5------5--
                                           ?ahhh?
G|----------------------------------------------------------------
D|----------------------------------------------------------------
A|------4--4-5--5-6--7---------------------5-7-7-7-7-7-5-7-7-7-7-7
E|-5--5----------------5--5-3--3-2--2-1--1------------------------
 ?ahhh??
G|----------------------
D|----------------------
A|-5-7-7-7-7-7-5-7--7--7
E|----------------------
                                            ?ahhhh??
G|--------------------------------------------------------------
D|---------------------7--7-----------------------6--6-7--7-8--9
A|------4--4-5--5-6--7------10--10-9--9-8--8-7--7---------------
E|-5--5---------------------------------------------------------

G|----------------------
D|----------------------
A|-7--7-----------------
E|------10--10-9--9-8--8

G|---------------------------------------------------------------
D|---------------------------------------------------------------
A|------6--6-7--7-8--9------4--4-5--5-6--6-7--7-5--5-4--4-5--6-7-
E|-7--7----------------5--5--------------------------------------

G|---------------------------------|   /: slide up
D|---------------------------------|  /d: slide down
A|-7-5--7--------------------------|  (x): nota opcional
E|--------------0------------------|

Blues de Cris (Pescado Rabioso)

Cansado de gritar por Cris
Mi mente está colgada como un árbol
Cansado de luchar por mí
Atado a mi destino
Al borde del camino volveré

Y si la ves pasar y no habla
Esto que sabe, que
Atado a mi destino
Sus ojos al final olvidaré

Cansado de gritar con Cris.
Mi mente está perdida como un árbol
Cansado de luchar por mí
Atado a mi destino
Al borde del camino volveré

Y si la ves pasar y no habla
Esto que sabe, que
Atado a mi destino
Sus ojos al final olvidaré

oh yee, oh yee!

Zumbando en mi caverna gris
La voz de Cris me llega y no cesa
Oh, zumbando en mi caverna gris
Atado a mi destino
Al borde del camino volveré

Y si la ves pasar y no habla
Esto que sabe, que
Atado a mi destino
Sus ojos al final olvidaré

oh yee, oh yee!

ahhh? ahhh? ahhh?

Mientras su musica se siga tocando y escuchando el carpo jamas morira,
vivira eternamente en la memoria de todos...
e-mail: zarathustra4321@

            
            
Suggest correction
Creating personal tab
Creating personal tab
You can edit any tab online and save it as your Personal.

You can edit, replace or remove any tab part or add personal notes – all changes will be seen only by you.

Personal tabs can be accessed anytime from any device, even offline.
Learn more »
Give kudos to tab author, rate the tab!
1 2 3 4 5
comments
print report bad tab
guest
Wanna post a correction for this tab? Suggest correction