Oops, an error
Loading. Please wait.

Post-Crucifixion bass

version 1
version 1

Whole song

Interactive

376 views 9 this week
no commentswrite comment
1 2 3 4 5
3 more votes to show rating
add to favorites
×
Save as Personal and add changes to this tab that will be seen only by you. Learn more ›
×
You can save this tab as Personal to edit and correct it or add notes. All changes will be seen only by you. Learn more »
launch autoscroll
font size
0
reset
guitar tuner
edit
Autoscroll
slow
fast
+/-
esc
set tempo
stop
Este tema merece una tablatura mas completa y precisa.
Nota por nota esta tal cual.

                      (6 veces)
G|-----|------------5-----5----------------------|---------------------|
D|-----|--------5-7---7-----7-5-7-5---5----------|---------------------|
A|-----|----5-7---------------------7---7-5-7-5--|---------------------|
E|-12\-|-5-8------------------------------------8|-5--3-5--3-5-/15\/5--|

              (4 veces)
G|--------------------------------------|
D|--------------------------------------|
A|-0--0-0--0-0--0-0--0-----------2-3-/5-|
E|---------------------3--3-3--3--------|

              (3 veces)
      ??Abrazame, madre del dolor?
G|--------------------------------------|
D|--------------------------------------|
A|-0--0-0--0-0--0-0--0-----------2-3-/5-|
E|---------------------3--3-3--3--------|

(y en la ultima vuelta hace esto)
?de este cuerpo?                            ?abrazame?
G|----------------------------------------------------------7--
D|--------------------------------------------------------7----
A|-0--0-0--0-0--0-0--0-----------2-3--3-5--5-5--5-5--5-5------5
E|---------------------3--3-3--3-------------------------------
            ?de la vida yo ya estoy repuestoooo?
G|-----5------------------------------|
D|----5-5-----0-1-2-3--3-3--/10--10---|
A|-3-----3-3--------------------------|
E|------------------------------------|

                (6 veces)
G|------------5-----5----------------------|---------------------|
D|--------5-7---7-----7-5-7-5---5----------|---------------------|
A|----5-7---------------------7---7-5-7-5--|---------------------|
E|-5-8------------------------------------8|-5--3-5--3-5-/15\5---|

              (3 veces)
      ??Abrazame, madre del dolor?
G|--------------------------------------|
D|--------------------------------------|
A|-0--0-0--0-0--0-0--0-----------2-3-/5-|
E|---------------------3--3-3--3--------|

(y en la ultima vuelta hace esto)
?del sepulcroooo                             ?abrazame?
G|----------------------------------------------------------7--
D|--------------------------------------------------------7----
A|-0--0-0--0-0--0-0--0-----------2-3--3-5--5-5--5-5--5-5------5
E|---------------------3--3-3--3-------------------------------
            ?amanece y hay resignacioooon?
G|-----5------------------------------|
D|----5-5-----0-1-2-3--3-3--/10--10---|
A|-3-----3-3--------------------------|
E|------------------------------------|

                (6 veces)
G|------------5-----5----------------------|---------------------|
D|--------5-7---7-----7-5-7-5---5----------|---------------------|
A|----5-7---------------------7---7-5-7-5--|---------------------|
E|-5-8------------------------------------8|-5--3-5--3-5---------|

      ?y en esta quietud?         ?no tengo,presagios de lo que vendraa?
G|----------------------------------------------------------------------|
D|-------------------5h7---------5--------------------------------------|
A|-----------------------------------------4--2--------0-0-0-0-0-0-0-0-0|
E|-5---------3-----------------------------------5--7-------------------|

              (4 veces)
G|--------------------------------------|
D|--------------------------------------|
A|-0--0-0--0-0--0-0--0-----------2-3-/5-|
E|---------------------3--3-3--3--------|

              (3 veces)
      ??Abrazame, madre del dolor?
G|--------------------------------------|
D|--------------------------------------|
A|-0--0-0--0-0--0-0--0-----------2-3-/5-|
E|---------------------3--3-3--3--------|

(y en la ultima vuelta hace esto)
?de este cuerpoooo?                         ?abrazame?
G|----------------------------------------------------------7--
D|--------------------------------------------------------7----
A|-0--0-0--0-0--0-0--0-----------2-3--3-5--5-5--5-5--5-5------5
E|---------------------3--3-3--3-------------------------------

            ?de la vida yo ya estoy repuestooo?
G|-----5--------------------------------------|
D|----5-5-----0-1-2-3--3-3--/10--10---/14-15\-|
A|-3-----3-3----------------------------------|
E|--------------------------------------------|

                (6 veces)
G|------------5-----5----------------------|---------------------|
D|--------5-7---7-----7-5-7-5---5----------|---------------------|
A|----5-7---------------------7---7-5-7-5--|---------------------|
E|-5-8------------------------------------8|-5--3-5--3-5\--------|

Postcrucificcion (Pescado Rabioso)

Abrazame, madre del dolor
nunca estuve tan lejos de, este cuerpo
Abrazame, de la vida yo ya estoy repuesto
Abrazame, madre del dolor
nunca estuve tan solo de, en este mundo
Abrazame, amanece y hay resignacion

Y en esta quietud, que ronda a mi muerte
no tengo presagios de lo que vendra

Abrazame, madre del dolor
nunca estuve tan lejos de, este cuerpo
Abrazame, de la vida yo ya estoy repuesto


  h: hammer on (ligado)
  /: slide up (arrastrar)
  \: slide down (arrastrar hacia atrás)
 (x): nota opcional

Mientras sus temas se sigan tocando y escuchando el Carpo y el
Flaco jamás morirán, vivirán eternamente en la memoria de todos...
e-mail: zarathustra4321@

            
            
Suggest correction
Creating personal tab
Creating personal tab
You can edit any tab online and save it as your Personal.

You can edit, replace or remove any tab part or add personal notes – all changes will be seen only by you.

Personal tabs can be accessed anytime from any device, even offline.
Learn more »
Give kudos to tab author, rate the tab!
1 2 3 4 5
comments
print report bad tab
guest
Wanna post a correction for this tab? Suggest correction