Oops, an error
Loading. Please wait.

Mi Tesoro tab

version 2
version 2

Whole song

41 views 1 this week
no commentswrite comment
1 2 3 4 5
3 more votes to show rating
add to favorites
×
Save as Personal and add changes to this tab that will be seen only by you. Learn more ›
×
You can save this tab as Personal to edit and correct it or add notes. All changes will be seen only by you. Learn more »
launch autoscroll
font size
0
reset
how to read this tab
guitar tuner
edit
Autoscroll
slow
fast
+/-
esc
set tempo
stop
ste es el intro la cancion

e----------7--------->----------5--------
B-------8-----8------>-------7-----7-----
G-----7---------7---->-----7---------7---
D---5---------------->---5---------------
A---5---------------->---5---------------
E---5---------------->---5---------------


e----------3--------->----------3---------3/2------
B-------5-----5------>-------5-----5-----------3---
G-----5---------5---->-----5---------5-------------
D---3---------------->---3-------------------------
A---3---------------->---3-------------------------
E---3---------------->---3-------------------------

yo lo que quiero es tomarte la mano
e----------7---------
B-------8-----8------
G-----7---------7----
D---5----------------
A---5----------------
E---5----------------

que pase el tiempo y seguir a tu lado

e-----------5-------
B-------7-----7-----
G-----7--------7----
D---5----------------
A---5----------------
E---5----------------

que nada robe nuestro sentimiento

e----------3---------
B-------5-----5------
G-----5---------5----
D---3----------------
A---3----------------
E---3----------------

sentir por siempre tu amor tan inmenso

e----------3---------3/2------
B-------5-----5------------3--
G-----5---------5-------------
D---3-------------------------
A---3-------------------------
E---3-------------------------

yo lo que quiero es cubrirme en tu abrigo

e-----------7--------
B-------8-----8------
G-----7---------7----
D---5----------------
A---5----------------
E---5----------------

cerrar los ojos y verte conmigo

e----------5--------
B-------7-----7-----
G-----7---------7----
D---5----------------
A---5----------------
E---5----------------

que tu calor queme el dolor que siento

e----------3---------
B-------5-----5------
G-----5---------5----
D---3----------------
A---3----------------
E---3----------------

solo tu amor cura mi sufrimiento

e----------3---------
B-------5-----5------
G-----5---------5----
D---3----------------
A---3----------------
E---3----------------

G               D         C            D
tu sabes que te adoroooo, eres mi amado tesoro
G                D      C                D
me llenas todo el alma, solo tu voz me devuelve la calma(bis)


e--14-------14----14------14-----
B-----15-15----15------15----15--  (bis)


yo lo que quiero es sentir tu cariño

e----------7---------
B-------8-----8------
G-----7---------7----
D---5----------------
A---5----------------
E---5----------------

que tus palabras me den mil motivos

e----------5--------
B-------7-----7-----
G-----7--------7----
D---5----------------
A---5----------------
E---5----------------

para calmar esta sed que yo tengo

e----------3---------
B-------5-----5------
G-----5--------5-----
D---3----------------
A---3----------------
E---3----------------

solo tu mar me refresca por dentro

e----------3----------3/2-----
B-------5-----5------------3--
G-----5---------5-------------
D---3-------------------------
A---3-------------------------
E---3-------------------------

yo lo que quiero es seguir tu camino

e----------7---------
B-------8-----8------
G-----7---------7----
D---5----------------
A---5----------------
E---5----------------

que todos sepan que eres mi destino

e----------5---------
B-------7-----7------
G-----7---------7----
D---5----------------
A---5----------------
E---5----------------

que borres todos los malos recuerdos

e----------3---------
B-------5-----5------
G-----5---------5----
D---3----------------
A---3----------------
E---3----------------

vivir contigo este amor tan inmenso

e----------3---------
B-------5-----5------
G-----5---------5----
D---3----------------
A---3----------------
E---3----------------

G              D          C               D
tu sabes que te adoroooo, y eres mi amado tesoro
G                D      C                D
me llenas todo el alma, solo tu voz me devuelve la calma(bis)
G          D            C             D
te busque y no encontre, cielo inmenso mas grande que tu
G         D           C          D                     G
te llame y no escuche, voz eterna mas mas tierna que tu
  C            D
tuuu... solo tuuuu..

G               D         C               D
tu sabes que te adoroooo, y eres mi amado tesoro
G                D       C               D
me llenas todo el alma, solo tu voz me devuelve la calma (bis)
G            D           C         D
es que tanto te adorooooo eeeeeeee
G            D         C       D
es que tanto te adoro aaaaaAAAAA

G               D         C               D
tu sabes que te adoroooo, y eres mi amado tesoro
G                D      C                D
me llenas todo el alma, solo tu voz me devuelve la calma


esta cancion va dedicada a la niña mas linda que hay en mi vida tu me haces
muy feliz ATT: cesar eduardo

            
            
Suggest correction
Creating personal tab
Creating personal tab
You can edit any tab online and save it as your Personal.

You can edit, replace or remove any tab part or add personal notes – all changes will be seen only by you.

Personal tabs can be accessed anytime from any device, even offline.
Learn more »
Give kudos to tab author, rate the tab!
1 2 3 4 5
comments
print report bad tab
guest
Wanna post a correction for this tab? Suggest correction