Oops, an error
Loading. Please wait.

Ten Ft Tall chords

version 2
version 2

Whole song

Interactive

8,775 views 3 this week
1 commentread comment
1 2 3 4 5
x 4
add to favorites
×
Save as Personal and add changes to this tab that will be seen only by you. Learn more ›
×
You can save this tab as Personal to edit and correct it or add notes. All changes will be seen only by you. Learn more »
launch autoscroll
font size
0
reset
transpose
0
reset
simplify chords
display chords
guitar tuner
edit
Autoscroll
slow
fast
+/-
esc
set tempo
stop
Author
Difficulty
Strumming
There is no strumming pattern for this song yet. and get +5 IQ
Chords used:

      C     Asus    Em     F      G    
e|----0------0------0------1------3------|
B|----1------0------0------1------3------|
G|----0------2------0------2------0------|
D|----2------2------2------3------0------| 
A|----3------0------2------3------2------|
E|----0------0------0------1------3------|


Intro: C, Asus, Em, F

C    Asus           Em     F
    And if I could,    I'd show you today 
    And if I knew,     All the words to say 
    And I could,       Whisk you away 
    to my world 

C      Asus        Em             F
    But you might say its just the luck of the draw 
    You might say that you've done this before 
    You might feel that you're 10 foot tall some days 


G             F     C
    And all I ever wanted to be 
    Will remain right here with
    
C        Asus             Em                      F 
you, and me,   And the times we've had,  And the times we've yet to see 
You, and me,   And the things we've done,And I'm sure its meant to be 
Do you, do you, do you agree 

You fought the world 
And you fought it all the way 
Watch your love slowly die 
You could lose in a day 
Many stand for you 
They will stand today 

But you might say its just the luck of the draw 
You might say that you've done this before 
You might feel that you're 10 foot tall some days 

And all I ever wanted to be 
Will remain right here 
With you 
And me 
And the times we've had 
And the times we've yet to see 
You and me 
And things we've done 
And I'm sure its meant to be 

Do you, do you, do you agree 
Do you, do you, do you agree 
Do you, do you, do you agree 
Do you, do you, do you agree 



-------------------------------------------------------------------------------




Pete Murray - Ten Ft Tall

Tabbed By - Jeremy Ward

!NOTE!: This song is played in standard tunning and with
        an acoustic guitar.

_________________

Intro and Verse:
_________________

     [C]       [Am1]      [Am2]     [E]       [F1]        [F2]
e|----------|---------|----------|--------|----------|------------|-
B|--1-------|---------|--1-------|--------|----------|--1---------|-
G|----------|----2----|------2---|--------|--2-------|----2-------|-
D|----2-----|--2------|----2-----|----2---|------3---|--------3---|-
A|------3---|---------|----------|--2-----|----3-----|------3-----|-
E|----------|---------|----------|--------|----------|------------|-




!NOTE!:  (Start Strumming With the funny (Am1) chord Then Hammer The 1st 
Finger
          On To Complete The (Am) aka (Am2), This is also used for the (F) 
If
          You Just Listen To The Song Closely You Will Understand What I 
Mean).

_______

lyrics:
_______

Intro:

[C]......[Am1]..[Am2]...[E]...[F1]..[F2] X 2

Verse 1:

[C]  [Am1][Am2]
      And if I could
[E]  [F1][F2]
      I'd show  you    today
     [C]    [Am1][Am2]
      And   if I knew
[E]  [F1][F2]
      All the words to say
     [C]    [Am1][Am2]
      And   I could
[E]  [F1][F2]          [C]    [Am1][Am2]  [E]  [F1][F2]
         Whisk you away to     my world

[C]   [Am1][Am2]       [E]  [F1][F2]                       [C]
      But   you  might say   its just the luck of the draw
   [Am1][Am2]   [E]  [F1][F2]               [C]
You might say   that you've done this before
   [Am1][Am2]   [E]  [F1][F2]           [C]  [Am1][Am2]  [E]  [F1][F2]
You might feel that you're 10 foot tall some days

_______

Bridge:
_______

    [E]         [F]          [C]
e|----------|--------------|-----------|
B|----------|--1-----------|--1--------|
G|----------|----2---------|-----------|
D|----2-----|--------3-----|----2------|    X 2
A|--2-------|------3-------|------3----|
E|----------|--------------|-----------|

    [C]         [Am]          [E]          [F]
e|----------|-----------|-----------|--------------|
B|--1-------|--1--------|-----------|--1-----------|
G|----------|------2----|-----------|----2---------|
D|----2-----|----2------|----2------|--------3-----|   X 2
A|------3---|-----------|--2--------|------3-------|
E|----------|-----------|-----------|--------------|



[E]       [F]  [C]       [E]
And all I ever wanted to be
     [F]   [C]
Will remain right here
     [C]
With you
    [Am]
And me
      [E]
And the times we've had
      [F]
And the times we've yet to see
[C]     [Am]
You and  me
      [E]
And the things we've done
      [F]
And I'm sure its meant to be

_______

Chorus:
_______

!NOTE!: (For This 'Do You,' Part Its The Same Chord Progression As The
         Verse Yet The Chord Changes Are Just Slower And The Hammer
         Isn't  Used.)

     [C]        [Am]        [E]          [F]
e|----------|-----------|----------|--------------|-
B|--1-------|--1--------|----------|--1-----------|-
G|----------|------2----|----------|----2---------|-
D|----2-----|----2------|----2-----|--------3-----|-
A|------3---|-----------|--2-------|------3-------|-
E|----------|-----------|----------|--------------|-

[C]       [Am]       [E]    [F]
   Do you,    do you,   do you agree
[C]     [Am1][Am2]   [E]    [F1][F2]
..............(Piano)...............

Verse 2:

[C]  [Am1][Am2]
     You fought the world
[E]   [F1][F2]
     And you fought it all the way
[C]    [Am1][Am2]
Watch your love slowly die
[E]  [F1][F2]
You could lose in a day
[C]  [Am1][Am2]
Many stand for you
[E]  [F1][F2]      [C]    [Am1][Am2]  [E]  [F1][F2]
     They will stand today

[C]   [Am1][Am2]       [E]  [F1][F2]                       [C]
      But   you  might say   its just the luck of the draw
   [Am1][Am2]   [E]  [F1][F2]               [C]
You might say   that you've done this before
   [Am1][Am2]   [E]  [F1][F2]           [C]  [Am1][Am2]  [E]  [F1][F2]
You might feel that you're 10 foot tall some days


Bridge:

[E]       [F]  [C]       [E]
And all I ever wanted to be
     [F]   [C]
Will remain right here
     [C]
With you
    [Am]
And me
      [E]
And the times we've had
      [F]
And the times we've yet to see
[C]     [Am]
You and  me
      [E]
And the things we've done
      [F]
And I'm sure its meant to be

Chorus:

[C]       [Am]       [E]    [F]
   Do you,    do you,   do you agree
[C]       [Am]       [E]    [F]
   Do you,    do you,   do you agree
[C]       [Am]       [E]    [F]
   Do you,    do you,   do you agree
[C]       [Am]       [E]    [F]
   Do you,    do you,   do you agree

______

Outro:
______


     [C]       [Am1]      [Am2]     [E]        [F1]        [F2]
e|----------|---------|----------|--------|-----------|------------|-
B|--1-------|---------|--1-------|--------|-----------|--1---------|-
G|----------|----2----|------2---|--------|--2--------|----2-------|-
D|----2-----|--2------|----2-----|----2---|------3----|--------3---|-   X 8 
(Fade On Start Of 9th)
A|------3---|---------|----------|--2-----|----3------|------3-----|-
E|----------|---------|----------|--------|-----------|------------|-


!NOTE!: (The Outro Is The Same As The Intro. It gradually Decreases In 
Volume
         In Sink With The Piano).

[C]     [Am1][Am2]   [E]    [F1][F2]
..............(Piano)...............
[C]     [Am1][Am2]   [E]    [F1][F2]
..............(Piano)...............
[C]     [Am1][Am2]   [E]    [F1][F2]
..............(Piano)...............
[C]     [Am1][Am2]   [E]    [F1][F2]
..............(Piano)...............
[C]     [Am1][Am2]   [E]    [F1][F2]
..............(Piano)...............
[C]     [Am1][Am2]   [E]    [F1][F2]
..............(Piano)...............
[C]     [Am1][Am2]   [E]    [F1][F2]
..............(Piano)...............
[C]     [Am1][Am2]   [E]    [F1][F2]
..............(Piano)...............
[C]     [Am1...Fade................]
..............(Piano)...............

..............(Piano)...............

..............(Piano)...............

..............(Piano)...............

.......Finish..

            
            
Suggest correction
Creating personal tab
Creating personal tab
You can edit any tab online and save it as your Personal.

You can edit, replace or remove any tab part or add personal notes – all changes will be seen only by you.

Personal tabs can be accessed anytime from any device, even offline.
Learn more »
comments
print report bad tab
1 comment total.
0 reply
liiammm 31 Mar 19, 2008 11:36 PM

Seems perfect. :)

guest
You may want to rate the tab now too:
select rating
Wanna post a correction for this tab? Suggest correction