Oops, an error
Loading. Please wait.

Run Like Hell tab

302 views 1 this week
no commentswrite comment
1 2 3 4 5
3 more votes to show rating
add to favorites
×
Save as Personal and add changes to this tab that will be seen only by you. Learn more ›
×
You can save this tab as Personal to edit and correct it or add notes. All changes will be seen only by you. Learn more »
launch autoscroll
font size
0
reset
how to read this tab
guitar tuner
edit
Autoscroll
slow
fast
+/-
esc
set tempo
stop
Author
Difficulty
hi Folks,  today this is my cover from Peter and the test 
tube babies - Run like hell!

more informations? need that i edit a cover from the same band?: machine_sk8@hotmail.fr

don't forget to rate me please!and comments!

enjoy !

*=palm mute
/= slide
~= bend




Intro:

e|0-------------------------------------|
b|1-------------------------------------|
g|0-------------------------------------| let ring 
d|2-------------------------------------|
a|3-------------------------------------|
e|O-------------------------------------|

I was down the local disco getting' off with this girl.

e|0-------------------------------------|
b|0-------------------------------------|
g|1-------------------------------------|let ring
d|2-------------------------------------|
a|2-------------------------------------|
e|0--------------------------------------|

things were going really good, going really well.

e|1-------------------------------------|
b|2-------------------------------------|
g|3-------------------------------------|
d|3-------------------------------------|let ring
a|2-------------------------------------|
e|1-------------------------------------|

We was alone in a corner kissing and then I heard

e|3-------------------------------------|
b|0-------------------------------------|
g|0-------------------------------------|
d|0-------------------------------------|let ring
a|2-------------------------------------|
e|3-------------------------------------|

this bloke come up behind me and say ..
" Oi, that's my fucking bird!! "

e|-------------------------------------|
b|-------------------------------------|
g|-------------------------------------|
d|-------------------------------------|repeat X5
a|3-1-0---0----------------------------|
e|------3------------------------------|

e|-------------------------------------|
b|-------------------------------------|
g|-------------------------------------|
d|5-3---2-3---7-5--4-5----10~----------|
a|----5-----------7--------------------|
e|-------------------------------------|

Verses:

e|-------------------------------------|
b|-------------------------------------|
g|5-----9-----10-10-10-10-5------------|
d|5-----9-----10-10-10-10-5------------| repeat X4
a|3*****7*****8--8--8--8--3------------|
e|-------------------------------------|

Chorus:

e|-------------------------------------|
b|-------------------------------------|
g|----------------5-5------------------|
d|2-----5-----5-5-5-5------------------|
a|2-----5-----5-5-3-3------------------|
e|0*****3*****3-3----------------------|

e|-------------------------------------------------|
b|-------------------------------------------------|
g|----------------5-5-----5-5-----5-5-----5-5------|
d|2-----5-----5-5-5-5-5-5-5-5-5-5-5-5-5-5-5-5------|
a|2-----5-----5-5-3-3-5-5-3-3-5-5-3-3-5-5-3-3------|
e|0*****3*****3-3-----3-3-----3-3-----3-3----------|

RUN LIKE HELL,RUN LIKE HELL,RUN LIKE HELL, RUN LIKE HELL!!!!!!

Outro:

e|-------------------------------------|
b|-------------------------------------|
g|-------------------------------------|
d|-------------------------------------|repeat X5
a|3-1-0---0----------------------------|
e|------3------------------------------|

e|-------------------------------------|
b|-------------------------------------|
g|-------------------------------------|
d|5-3---2-3---7-5--4-5----10~----------|
a|----5-----------7--------------------|
e|-------------------------------------|

Verses:

e|-------------------------------------|
b|-------------------------------------|
g|5-----9-----10-10-10-10-5------------|
d|5-----9-----10-10-10-10-5------------| repeat X4
a|3*****7*****8--8--8--8--3------------|
e|-------------------------------------|

Chorus:

e|-------------------------------------|
b|-------------------------------------|
g|----------------5-5------------------|
d|2-----5-----5-5-5-5------------------|
a|2-----5-----5-5-3-3------------------|
e|0*****3*****3-3----------------------|

e|-------------------------------------------------|
b|-------------------------------------------------|
g|----------------5-5-----5-5-----5-5-----5-5------|
d|2-----5-----5-5-5-5-5-5-5-5-5-5-5-5-5-5-5-5------|
a|2-----5-----5-5-3-3-5-5-3-3-5-5-3-3-5-5-3-3------|
e|0*****3*****3-3-----3-3-----3-3-----3-3----------|


e|-------------------------------------|
b|-------------------------------------|
g|-------------------------------------|
d|-------------------------------------|repeat X5
a|3-1-0---0----------------------------|
e|------3------------------------------|

e|-----------------------------------------|
b|-----------------------------------------|
g|-----------------------------------------|
d|5-3---2-3---7-5--4-5----10~------10--10~-|
a|----5-----------7-------------12---12----|
e|-----------------------------------------|


Solo:

e|8-8*8-8--12-12*-12-12-13-13-13-13-13-8--------|
b|8-8*8-8--12-12*-12-12-13-13-13-13-13-8--------|
g|8-8*8-8--12-12*-12-12-13-13-13-13-13-8--------|
d|----------------------------------------------|repeat X2
a|----------------------------------------------|
e|----------------------------------------------|

End:

e|-------------------------------------|
b|-------------------------------------|
g|----------------5-5------------------|
d|2-----5-----5-5-5-5------------------|repeatX4
a|2-----5-----5-5-3-3------------------|
e|0*****3*****3-3----------------------|

e|-------------------------------------------------|
b|-------------------------------------------------|
g|----------------5-5-----5-5-----5-5-----5-5------|
d|2-----5-----5-5-5-5-5-5-5-5-5-5-5-5-5-5-5-5------|
a|2-----5-----5-5-3-3-5-5-3-3-5-5-3-3-5-5-3-3------|
e|0*****3*****3-3-----3-3-----3-3-----3-3----------|

e|-------------------------------------|
b|-------------------------------------|
g|-------------------------------------|
d|-------------------------------------|repeat X2
a|3-1-0---0----------------------------|
e|------3------------------------------|

e|-------------------------------------|
b|-------------------------------------|
g|-------------------------------------|
d|-------------------------------------|
a|3-1-0---0--3-------------------------|
e|------3------------------------------|

thanks you for your rate and comments :)

https://www.youtube.com/watch?v=tK20knA3bRY

            
            
Suggest correction
Creating personal tab
Creating personal tab
You can edit any tab online and save it as your Personal.

You can edit, replace or remove any tab part or add personal notes – all changes will be seen only by you.

Personal tabs can be accessed anytime from any device, even offline.
Learn more »
Give kudos to tab author, rate the tab!
1 2 3 4 5
comments
print report bad tab
guest
You may want to rate the tab now too:
select rating
Wanna post a correction for this tab? Suggest correction