Oops, an error
Loading. Please wait.

Spirit Of Ketih Moon tab

511 views 1 this week
no commentswrite comment
1 2 3 4 5
x 3
add to favorites
×
Save as Personal and add changes to this tab that will be seen only by you. Learn more ›
×
You can save this tab as Personal to edit and correct it or add notes. All changes will be seen only by you. Learn more »
launch autoscroll
font size
0
reset
how to read this tab
guitar tuner
edit
Autoscroll
slow
fast
+/-
esc
set tempo
stop
Author
Difficulty
hi Folks,  today this is my cover from Peter and the test 
tube babies - Spirit of Keith Moon!

more informations? need that i edit a other cover?: machine_sk8@hotmail.fr

don't forget to rate me please!and comments!

enjoy !

*=palm mute
/= slide
~= bend

Intro:

e|-------------------------------------|
b|-------------------------------------|
g|----2-------2------2---3-3-2-2-------| repeatX6
d|0-0---0-0-0---0-3-3--3---------3-----|
a|-------------------------------------|
e|-------------------------------------|

e|---------------------------------------------------------------------------------------|
b|---------------------------------------------------------------------------------------|
g|---------------------------------------------------------------------------------------|
d|14-14-14-14-14-14-14-14-14-14-14-14-14-14-14-12-12-12-12-12-12-12-12-12-12-12-12-12-12-|
a|---------------------------------------------------------------------------------------|
e|---------------------------------------------------------------------------------------|

Verses:

e|------------------------------------------|
b|------------------------------------------|
g|------------------------------------------|
d|14------------------14--------15-14-12----|repeatX3
a|----*12*12*12*12*12----*12*12-------------|
e|------------------------------------------|

e|-----------------------------------------------------|
b|-----------------------------------------------------|
g|-----------------------------------------------------|
d|14------------------14--------14-12-14-15-14-12------|
a|----*12*12*12*12*12*---*12*12*-----------------------|
e|-----------------------------------------------------|

e|---------------------------------------------------------------------------------------|
b|---------------------------------------------------------------------------------------|
g|---------------------------------------------------------------------------------------|
d|14-14-14-14-14-14-14-14-14-14-14-14-14-14-14-12-12-12-12-12-12-12-12-12-12-12-12-12-12-|
a|---------------------------------------------------------------------------------------|
e|---------------------------------------------------------------------------------------|

Verses:

e|------------------------------------------|
b|------------------------------------------|
g|------------------------------------------|
d|14------------------14--------15-14-12----|repeatX3
a|----*12*12*12*12*12----*12*12-------------|
e|------------------------------------------|

e|-----------------------------------------------------|
b|-----------------------------------------------------|
g|-----------------------------------------------------|
d|14------------------14--------14-12-14-15-14-12------|
a|----*12*12*12*12*12*---*12*12*-----------------------|
e|-----------------------------------------------------|

Outro:

e|---------------------------------------------------------------------------------------|
b|---------------------------------------------------------------------------------------|
g|---------------------------------------------------------------------------------------|
d|14-14-14-14-14-14-14-14-14-14-14-14-14-14-14-12-12-12-12-12-12-12-12-12-12-12-12-12-12-|
a|---------------------------------------------------------------------------------------|
e|---------------------------------------------------------------------------------------|

e|-------------------------------------|
b|-------------------------------------|
g|---9---9---10---10-------------------|
d|-7---7---7----7----------------------|
a|-------------------------------------|
e|-------------------------------------|

chorus:

e|-------------------------------------|
b|-------------------------------------|
g|7---10-10-10-10--5-5-5---------------|
d|7---10-10-10-10--5-5-5---------------|
a|5---8--8--8--8---3-3-3---------------|
e|-------------------------------------|

e|-------------------------------------|
b|-------------------------------------|
g|7---10-10-10-10--12------------------|
d|7---10-10-10-10--12------------------|
a|5---8--8--8--8---10------------------|
e|-------------------------------------|

e|-------------------------------------|
b|-------------------------------------|
g|----2-------2------2---3-3-2-2-------|
d|0-0---0-0-0---0-3-3--3---------3-----|
a|-------------------------------------|
e|-------------------------------------|

e|---------------------------------------------------------------------------------------|
b|---------------------------------------------------------------------------------------|
g|---------------------------------------------------------------------------------------|
d|14-14-14-14-14-14-14-14-14-14-14-14-14-14-14-12-12-12-12-12-12-12-12-12-12-12-12-12-12-|
a|---------------------------------------------------------------------------------------|
e|---------------------------------------------------------------------------------------|

Verses:

e|------------------------------------------|
b|------------------------------------------|
g|------------------------------------------|
d|14------------------14--------15-14-12----|repeatX3
a|----*12*12*12*12*12----*12*12-------------|
e|------------------------------------------|

e|-----------------------------------------------------|
b|-----------------------------------------------------|
g|-----------------------------------------------------|
d|14------------------14--------14-12-14-15-14-12------|
a|----*12*12*12*12*12*---*12*12*-----------------------|
e|-----------------------------------------------------|

Outro:

e|---------------------------------------------------------------------------------------|
b|---------------------------------------------------------------------------------------|
g|---------------------------------------------------------------------------------------|
d|14-14-14-14-14-14-14-14-14-14-14-14-14-14-14-12-12-12-12-12-12-12-12-12-12-12-12-12-12-|
a|---------------------------------------------------------------------------------------|
e|---------------------------------------------------------------------------------------|

e|-------------------------------------|
b|-------------------------------------|
g|---9---9---10---10-------------------|
d|-7---7---7----7----------------------|
a|-------------------------------------|
e|-------------------------------------|

chorus:

e|-------------------------------------|
b|-------------------------------------|
g|7---10-10-10-10--5-5-5---------------|
d|7---10-10-10-10--5-5-5---------------|
a|5---8--8--8--8---3-3-3---------------|
e|-------------------------------------|

e|-------------------------------------|
b|-------------------------------------|
g|7---10-10-10-10--12------------------|
d|7---10-10-10-10--12------------------|
a|5---8--8--8--8---10------------------|
e|-------------------------------------|


Bridge:

e|------------------------------------------------------|
b|------------------------------------------------------|
g|-------2-----------2--3---------3-2-----2-------------|
d|0----0---3-------3------------3------------3-0--------|
a|------------------------------------------------------|
e|------------------------------------------------------|

Solo:

e|-------------------------------------------13----12~---13---12~|
b|-10-10-10-10-10-10-10-10-10-10---13--13--11----11----11---11---|
g|7--7--7--7--7--7--7---7-7--7----10--10-------------------------|
d|---------------------------------------------------------------|
a|---------------------------------------------------------------|
e|---------------------------------------------------------------|

e|-------------------------------------|
b|-------------------------------------|
g|------2-------2-------2-0------------|
d|0-3-5---0-3-5---0-3-5----3-0-0-3-----|repeatX2
a|-------------------------------------|
e|-------------------------------------|

e|----------------------------------------------------------|
b|-----6----6--8-8-8--10~10~10~10~10~10-8-------------------|
g|5--7---7--------------------------------10--7-------------|
d|----------------------------------------------------------|
a|----------------------------------------------------------|
e|----------------------------------------------------------|

e|10-10-10-10-10-10-10-10-10----------------------------------------|
b|10-10-10-10-10-10-10-10-10----------------------------------------|
g|10-10-10-10-10-10-10-10-10----------------------------------------|
d|------------------------------14~-14~-14~14~-14~14~14-14~---------|
a|------------------------------------------------------------------|
e|------------------------------------------------------------------|

e|---------------------------------------------------------------------------------------|
b|---------------------------------------------------------------------------------------|
g|---------------------------------------------------------------------------------------|
d|14-14-14-14-14-14-14-14-14-14-14-14-14-14-14-12-12-12-12-12-12-12-12-12-12-12-12-12-12-|
a|---------------------------------------------------------------------------------------|
e|---------------------------------------------------------------------------------------|

e|-------------------------------------|
b|-------------------------------------|
g|---9---9---10---10-------------------|
d|-7---7---7----7----------------------|
a|-------------------------------------|
e|-------------------------------------|
chorus:

e|-------------------------------------|
b|-------------------------------------|
g|7---10-10-10-10--5-5-5---------------|
d|7---10-10-10-10--5-5-5---------------|
a|5---8--8--8--8---3-3-3---------------|
e|-------------------------------------|

e|-------------------------------------|
b|-------------------------------------|
g|7---10-10-10-10--12------------------|
d|7---10-10-10-10--12------------------|
a|5---8--8--8--8---10------------------|
e|-------------------------------------|

this time repeat the chorus X2

End:

e|-------------------------------------|
b|-------------------------------------|
g|----2-------2------2---3-3-2-2-------|repeatX4
d|0-0---0-0-0---0-3-3--3---------3-----|
a|-------------------------------------|
e|-------------------------------------|

e|---------------------------------------------------------------------------------------|
b|---------------------------------------------------------------------------------------|
g|---------------------------------------------------------------------------------------|
d|14-14-14-14-14-14-14-14-14-14-14-14-14-14-14-12-12-12-12-12-12-12-12-12-12-12-12-12-12-|
a|---------------------------------------------------------------------------------------|
e|---------------------------------------------------------------------------------------|

thank you for your rates and comments ;)

https://www.youtube.com/watch?v=aqeWFd2a_k4

            
            
Suggest correction
Creating personal tab
Creating personal tab
You can edit any tab online and save it as your Personal.

You can edit, replace or remove any tab part or add personal notes – all changes will be seen only by you.

Personal tabs can be accessed anytime from any device, even offline.
Learn more »
Give kudos to tab author, rate the tab!
1 2 3 4 5
comments
print report bad tab
guest
You may want to rate the tab now too:
select rating
Wanna post a correction for this tab? Suggest correction