Oops, an error
Loading. Please wait.

The Owl chords

353 views 1 this week
no commentswrite comment
1 2 3 4 5
3 more votes to show rating
add to favorites
×
Save as Personal and add changes to this tab that will be seen only by you. Learn more ›
×
You can save this tab as Personal to edit and correct it or add notes. All changes will be seen only by you. Learn more »
launch autoscroll
font size
0
reset
transpose
0
reset
simplify chords
display chords
guitar tuner
edit
Autoscroll
slow
fast
+/-
esc
set tempo
stop
Strumming
There is no strumming pattern for this song yet. and get +5 IQ
SONG   | The Owl
ARTIST | Peter and the Wolf
ALBUM  | Lightness

OPEN D TUNING:
6:D  5:A  4:D  3:F#  2:A  1:D


There's a lot of guitar layers and improvisation on the original recording; this is a fairly simplified 
version that gets across the main patterns and chords. Just mess about with hammer-ons, pull-offs and 
fingerpicking to get the vibe of the song.


______
CHORDS

    D    E    G   C#m   A1   A2   Bm
D |-0--|-2--|-5--|----|----|-2--|-0--|
A |-0--|-2--|-5--|-0--|-0--|-4--|-2--|
F#|-0--|-2--|-5--|-0--|-0--|-3--|-0--|
D |-0--|-2--|-5--|----|----|-2--|-0--|
A |-0--|-2--|-5--|-4--|-0--|-0--|-2--|
D |-0--|-2--|-5--|----|----|----|----|


____________________
INTRO / MAIN PATTERN
    D
D |---------------0-------------------0-----|---------------0-------------------------|
A |-----------0h2------2---p0---------------|-----------0h2------2---p0---------------|
F#|------0-----------------------0----------|------0-----------------------0----------|
D |-----------------------------------------|-----------------------------------------|
A |-----------------------------------------|-----------------------------------------|
D |-0---------------------------------------|-0---------------------------------0-----|

    E
D |---------------2---------4---------------|--------------------4--------------------|
A |-----------2-----------------------2-----|------2------------------2---------------|
F#|------2----------------------------------|-----------2------------------2----------|
D |-----------------------------------------|-----------------------------------------|
A |-----------------------------------------|-----------------------------------------|
D |-2------------------2---------2----------|-2-------------2-------------------2-----|

    G
D |---------------5-------------------5-----|-----------9-------9----7----------------|
A |-----------5h7------7---p5---------------|-----------5-------5----5----------------|
F#|------5-----------------------5----------|------5----------------------------5-----|
D |-----------------------------------------|-----------------------------------------|
A |-----------------------------------------|-----------------------------------------|
D |-5---------------------------------------|-5-------------5--------------5----------|

    D                                         C#m                           A1
D |---------------0-------------------0-----|-----------------------------------------|
A |-----------0h2------2---p0---------------|--------0---------0---------0---------0--|
F#|------0-----------------------0----------|-----0---------0---------0---------0-----|
D |-----------------------------------------|-----------------------------------------|
A |-----------------------------------------|-4---------4---------4---------0---------|
D |-0---------------------------------------|-----------------------------------------|


______
PART 1
D                                 E
Wait a couple of days, you know I will
G                                 D       C#m  A1
Ten thousand years, I'll be there still
D                                     E
Drive a couple of nights, of course I will
G                                 D
Ten thousand miles, I'll be there still

______
PART 2
C#m             A1       G
Oh did you ever hear the owl of the sea
D
Singing in a black pine tree
     E
When all the world's asleep
        A2
About a bird he used to...

_____
OUTRO

Bm / / / | D  / / / | G  / / / | Bm  / / / |
Know...

E  / / / | G  / / / | D  / / / | C#m / / A1|
Oh.....

Bm / / / | D  / / / | G  / / / | Bm  / / / |
Oh.....

E  / / / | G  / / / | D  / / / | C#m / / A1|
Oh.....


End on D


ENJOY

            
            
Suggest correction
Creating personal tab
Creating personal tab
You can edit any tab online and save it as your Personal.

You can edit, replace or remove any tab part or add personal notes – all changes will be seen only by you.

Personal tabs can be accessed anytime from any device, even offline.
Learn more »
Give kudos to tab author, rate the tab!
1 2 3 4 5
comments
print report bad tab
guest
You may want to rate the tab now too:
select rating
Wanna post a correction for this tab? Suggest correction