Oops, an error
Loading. Please wait.

Segel Im Wind tab

4,229 views 6 this week
no commentswrite comment
1 2 3 4 5
1 last vote to show rating
add to favorites
×
Save as Personal and add changes to this tab that will be seen only by you. Learn more ›
×
You can save this tab as Personal to edit and correct it or add notes. All changes will be seen only by you. Learn more »
launch autoscroll
font size
0
reset
how to read this tab
guitar tuner
edit
Autoscroll
slow
fast
+/-
esc
set tempo
stop
Author
Difficulty
Segel im Wind
Peter Cornelius

Tabbed by steini


D                                                              Em
Du bist a Frau bei der man völlig vergißt, daß es noch andere gibt.
                A                                                       D
Man dreht sich nimmer nach den Anderen um, weil man sie gar nicht mehr sieht.
Net a Minute vergeht in der man net an di' denkt und man spürt,
daß die Beziehung zu dir ganz intensiv und völlig schicksalhaft wird.
Du bist elektrisches Fieber und man wünscht sich das es nie mehr vergeht.
Eine Lawine von Gefühlen reißt mich mit, bis sie mich zärtlich begräbt.
A Mensch der so wie du gibt, is auch a Mensch der sehr bald wieder nimmt.
Du hast die Kraft einer Löwin, doch du treibst so wie a Segel im Wind.

D                 A      G              D
Kannst du net no bleib'n, na - du mußt geh'n,
                 A        C               A
laß di' weiter treib'n, trotzdem war's schön.

         D                                            Em
Es wäre dumm zu versuchen an Gesetzen des Lebens zu dreh'n.
            A                                                        D
Wenn etwas wild ist wie du dann muß man wissen, daß man das niemals zähmt.
Es ist dein Recht so zu leben, denn du hast nur des eine O.K.
Du gibst di' net gleich zufrieden und du weißt du willst geh'n - also geh'.
Es ist mir klar daß jemand nur so geben kann, wenn er dann auch wieder nimmt.
Du hast die Kraft einer Löwin doch du treibst so wie a Segel im Wind.

D                 A      G           D
Kannst du net no bleib'n, nur heute Nacht.
                A       C             A
Hilf mir zu verzeih'n, gib mir die Kraft.

             D                                            Em
Es ist dein Recht so zu leben, denn du hast nur des eine O.K.
              A                                                       D
Du gibst di' net gleich zufrieden und du weißt du willst gehn - also geh'.
Es ist mir klar daß jemand nur so geben kann, wenn er dann auch wieder nimmt.
Du hast die Kraft einer Löwin doch du treibst so wie a Segel im Wind.


e|-----------------------------------------------------------------------------------------------|
B|-----------------------------------------------------------------------------------------------|
G|-----------------------------------------------------------------------------------------------|
D|-/12-12-12-12--11-11-11--9-9-9--7-7-7--5-4-4/5----/11-11-11-11--9-9-9--7-7-7--5-5-5---4-2-2/4--|
A|-----------------------------------------------------------------------------------------------|
E|-----------------------------------------------------------------------------------------------|

|-----------------------------------------------------------------------------------------------|
|-----------------------------------------------------------------------------------------------|
|-/11-11-11-11--9-9-9--7-7-7--6-6-6-6-7-7/9-----------------------------------------------------|
|-------------------------------------------/9-----/11-11-11-11--9-9-9--7-7-7--5-5-5-5-4-2-0----|
|-----------------------------------------------------------------------------------------------|
|-----------------------------------------------------------------------------------------------|

|------------------------------------------------------------------------------------------------|
|-/15-15-15-15-14-14-14-12-12-12-10-10-10-8-7-7/8--/14-14-14-14-12-12-12-10-10-10-8-8-8-8-7-5-5/7|
|------------------------------------------------------------------------------------------------|
|------------------------------------------------------------------------------------------------|
|------------------------------------------------------------------------------------------------|
|------------------------------------------------------------------------------------------------|
                                               fadeout
|-/14-14-14-14-12-12-12-10-10-10-9-9-9-9-10-10/12------------------------------------------------|
|-----------------------------------------------/12--/14-14-14-14-12-12-12-10-10-10-8-8-8-8-7-5-7|
|------------------------------------------------------------------------------------------------|
|------------------------------------------------------------------------------------------------|
|------------------------------------------------------------------------------------------------|
|------------------------------------------------------------------------------------------------|

            
            
Suggest correction
Creating personal tab
Creating personal tab
You can edit any tab online and save it as your Personal.

You can edit, replace or remove any tab part or add personal notes – all changes will be seen only by you.

Personal tabs can be accessed anytime from any device, even offline.
Learn more »
Give kudos to tab author, rate the tab!
1 2 3 4 5
comments
print report bad tab
guest
You may want to rate the tab now too:
select rating
Wanna post a correction for this tab? Suggest correction