Oops, an error
Loading. Please wait.

And Through The Wire tab

314 views 6 this week
no commentswrite comment
1 2 3 4 5
2 more votes to show rating
add to favorites
×
Save as Personal and add changes to this tab that will be seen only by you. Learn more ›
×
You can save this tab as Personal to edit and correct it or add notes. All changes will be seen only by you. Learn more »
launch autoscroll
font size
0
reset
how to read this tab
guitar tuner
edit
Autoscroll
slow
fast
+/-
esc
set tempo
stop
Author
Difficulty
maguri [tm] 32,520
intermediate
---------------------------------------------------------------------------
              And Through the Wire – Peter Gabriel
---------------------------------------------------------------------------
Tabbed by: maguri
Tuning: Standard

Peter Gabriel 
And Through the Wire (1980)
(Gabriel)

From: "Peter Gabriel [3/Melt]

---------------------------------------------------------------------------

capo: 1st fret
play: C
key: C#

---------------------------------------------------------------------------

INTRO / VERSE
  G           Gsus4            G           Gsus4
  1 + 2 + 3 + 4 + 5 + 6 + 7 +  1 + 2 + 3 + 4 + 5 + 6 + 7 +  
e|----------------------------|----------------------------|
B|0-----------1---------------|0-----------1---------------|
G|0-----0-----0---------------|0-----0-----0---------------|
D|0-----0-----0---------------|0-----0-----0---------------|
A|----------------------------|----------------------------|
E|3-3-3-3-3-3-3-3-3-3-3-3-3-3-|3-3-3-3-3-3-3-3-3-3-3-3-3-3-|

CHORUS
       C/A                               C/A
  C  C/B    G     E5  A5 Dsus4 D    C  C/B    G     E5  A5 Dsus4 D
  1 + 2 + 3 + 4 +  1 + 2 + 3 + 4 +  1 + 2 + 3 + 4 +  1 + 2 + 3 + 4 +
e|----------------|--------3---2---|----------------|--------3---2---|
B|1---------------|--------3---3---|1---------------|--------3---3---|
G|0---------------|----2---2---2---|0---------------|----2---2---2---|
D|2---------------|2---2-----------|2---------------|2---2-----------|
A|----2-0---------|2---0-----------|----2-0---------|2---0-----------|
E|----------3-----|0---------------|----------3-----|0---------------|
       C/A                               C/A
  C  C/B   G      E5  A5 Dsus4 D    C  C/B   G      E5  A5 Dsus4 D
  1 + 2 + 3 + 4 +  1 + 2 + 3 + 4 +  1 + 2 + 3 + 4 +  1 + 2 + 3 + 4 +
e|----------------|--------3---2---|----------------|--------3---2---|
B|1---------------|--------3---3---|1---------------|--------3---3---|
G|0---------------|----2---2---2---|0---------------|----2---2---2---|
D|2---------------|2---2-----------|2---------------|2---2-----------|
A|----2-0---------|2---0-----------|----2-0---------|2---0-----------|
E|----------3-----|0---------------|----------3-----|0---------------|
       C/A                               C/A
  C  C/B    G     E5  A5 Dsus4 D    C  C/B   G      E5  A5 Dsus4 D
  1 + 2 + 3 + 4 +  1 + 2 + 3 + 4 +  1 + 2 + 3 + 4 +  1 + 2 + 3 + 4 +
e|----------------|--------3---2---|----------------|--------3---2---|
B|1---------------|--------3---3---|1---------------|--------3---3---|
G|0---------------|----2---2---2---|0---------------|----2---2---2---|
D|2---------------|2---2-----------|2---------------|2---2-----------|
A|----2-0---------|2---0-----------|----2-0---------|2---0-----------|
E|----------3-----|0---------------|----------3-----|0---------------|
  C        D/C Cmaj7
  1 + 2 + 3 + 4 +  1 + 2 + 3 + 4 +  
e|0---------2---3-|----------------|
B|1---------3---5-|----------------|
G|0---------2---4-|----------------|
D|2-------------5-|----------------|
A|3---------3---3-|----------------|
E|----------------|----------------|

---------------------------------------------------------------------------

INTRO [7/4]
| G  Gsus4   | G  Gsus4   |
| G  Gsus4   | G  Gsus4   |


CHORUS
              | C  C/B C/A G    |
And through the wire 
E5 A5  Dsus4 D    | C  C/B C/A G    |
      I hear  your voice
E5 A5  Dsus4   D  | C  C/B C/A G    |
    And through the wire 
E5 A5  Dsus4 D  | C  C/B C/A G    |
      I touch the power
E5 A5  Dsus4   D  | C  C/B C/A G    |
    And through the wire 
E5 A5 Dsus4  D | C  C/B C/A G    |
    I  see   your face
E5 A5   Dsus4   D  | C     D/C | Cmaj7 |
    It's through the wire


VERSE [7/4]
G                    Gsus4            G      Gsus4
Friday night, you're staying at home (I want you)
    G                       Gsus4      G      Gsus4
I'm tickling and clicking a metronome (I want you)
G                          Gsus4              G      Gsus4
Prowling the waterhole - I wait for the kill (I want you)
G                     Gsus4      G      Gsus4
Pressure's building - overspill (I want you)


CHORUS
              | C  C/B C/A G    |
And through the wire 
E5 A5      Dsus4 D   | C  C/B C/A G    |
        You are      secure
E5 A5  Dsus4   D  | C  C/B C/A G    |
    And through the wire 
E5 A5  Dsus4 D  | C  C/B C/A G    |
        We    can talk
E5 A5  Dsus4   D  | C  C/B C/A G    |
    And through the wire 
E5 A5  Dsus4 D  | C  C/B C/A G    |
        We    can walk
E5 A5   Dsus4   D  | C     D/C | Cmaj7 |
    It's through the wire


VERSE [7/4]
G                       Gsus4          G      Gsus4
Watchmaker steadies his delicate hand (I want you)
G                       Gsus4            G      Gsus4
For barbeque parties on blood red sands (I want you)
G                       Gsus4            G      Gsus4
Caught in the struggle tight on the rod (I want you)
G                      Gsus4              G      G7sus4
Bring out the devil to bring out the god (I want you)


CHORUS
              | C  C/B C/A G    |
And through the wire 
E5 A5  Dsus4 D    | C  C/B C/A G    |
      I hear  your voice
E5 A5  Dsus4   D  | C  C/B C/A G    |
    And through the wire 
E5 A5  Dsus4 D  | C  C/B C/A G    |
      I touch the power
E5 A5  Dsus4   D  | C  C/B C/A G    |
    And through the wire 
E5 A5 Dsus4  D | C  C/B C/A G    |
    I  see   your face
E5 A5   Dsus4   D  | C     D/C | Cmaj7 |
    It's through the wire


MIDDLE 8
Em                         Cmaj7
    Driving 'round the city rings
Em                         Cmaj7
    Staring at the shape of things
Em                        Cmaj7
 I talk in pictures not in words
                F
Overloaded with everything we said
   G
Be careful where you tread


INTERLUDE
         | C  C/B C/A G    | E5 A5 Dsus4 D |
Watch the wire
         | C  C/B C/A G    | E5 A5 Dsus4 D |


CHORUS
              | C  C/B C/A G    |
And through the wire 
E5 A5      Dsus4 D   | C  C/B C/A G    |
        You are      secure
E5 A5  Dsus4   D  | C  C/B C/A G    |
    And through the wire 
E5 A5  Dsus4 D  | C  C/B C/A G    |
        We    can talk
E5 A5  Dsus4   D  | C  C/B C/A G    |
    And through the wire 
E5 A5  Dsus4 D  | C  C/B C/A G    |
        We    will walk


CHORUS
E5 A5  Dsus4   D  | C  C/B C/A G    |
    And through the wire 
E5 A5        Dsus4 D      | C  C/B C/A G    |
        We're clinging like leeches
E5 A5  Dsus4   D  | C  C/B C/A G    |
    And through the wire 
E5 A5 Dsus4 D      | C  C/B C/A G    |
    We push out tailormade speeches


CHORUS (outro + coda)
E5 A5  Dsus4   D  | C  C/B C/A G    | 
    And through the wire 

| E5 A5 Dsus4 D | C  C/B C/A G    |

E5 A5  Dsus4   D  | C  C/B C/A G    |
    And through the wire 

| E5 A5 Dsus4 D | C  C/B C/A G    |


E5 A5  Dsus4   D  | C  C/B C/A G    |
    And through the wire 
E5 A5     D      | C  C/B C/A G    | E5 A5 D   |
 We get so strange across the border
C   C/B C/A   G      E5   A5  Dsus4 D   | C  C/B C/A G    |
 We get  so  strange across the bor – der


E5 A5     D      | C  C/B C/A G    | E5 A5 D   | C  C/B C/A G    |
 We get so strange across the border
E5 A5     D      | C  C/B C/A G    | E5 A5 D   | C  C/B C/A G    |
 We get so strange across the border
E5 A5     D      | C     D/C | Cmaj7 | G
 We get so strange ...



            
            
Suggest correction
Creating personal tab
Creating personal tab
You can edit any tab online and save it as your Personal.

You can edit, replace or remove any tab part or add personal notes – all changes will be seen only by you.

Personal tabs can be accessed anytime from any device, even offline.
Learn more »
Give kudos to tab author, rate the tab!
1 2 3 4 5
comments
print report bad tab
guest
You may want to rate the tab now too:
select rating
Wanna post a correction for this tab? Suggest correction