Oops, an error
Loading. Please wait.
We have an official Solsbury Hill tab made by UG professional guitarists. Check out the tab »
×

Solsbury Hill tab

version 4
version 4

Whole song

Interactive

Video

79,841 views 165 this week
4 commentsread comments
1 2 3 4 5
x 27
add to favorites
×
Save as Personal and add changes to this tab that will be seen only by you. Learn more ›
×
You can save this tab as Personal to edit and correct it or add notes. All changes will be seen only by you. Learn more »
launch autoscroll
font size
0
reset
how to read this tab
guitar tuner
edit
Autoscroll
slow
fast
+/-
esc
set tempo
stop
Author
Intro (1X)

E----------------------------------|--------------------------------|
B--------2---4h5--5--4-------------|--5--4--2-----------------------|
G--3--4--3---4----4--4-------------|--4--4--3-----------------------|
D--4--4------4h6--6--4-------------|--6--4--4-----------------------|
A----------------------------------|--------------------------------|
e----------------------------------|--------------------------------|

Then (5X)
E----------------------------------|--------------------------------|
B--------2---5--7--4---------------|--5--4--2-----------------------|
G--3--4--3---4--4--4---------------|--4--4--3-----------------------|
D--4--4------6--6--4---------------|--6--4--4-----------------------|
A----------------------------------|--------------------------------|
e----------------------------------|--------------------------------|

E-----------------------------------------------|
B--------2---4---2------------------------------|
G--3--4--3---4---3---4--4-----------------------|
D--4--4------4---4---4--4-----------------------|
A-----------------------------------------------|
e-----------------------------------------------|

Climbing up on Solsbury Hill

E-------------------------------------|
B--4---2------------------------------|
G--4---3---4--4-----------------------|
D--4---4---4--4-----------------------|
A-------------------------------------|
e-------------------------------------| 

I could see the city lights

E-------------------------------------|
B--4---2---0--0-----------------------|
G--4---3---4--4-----------------------|
D-------------------------------------|
A-------------------------------------|
e-------------------------------------| 

Wind was blowing, time stood still

E-------------------------------------|
B--4---2---4--0-----------------------|
G--4---3---4--4-----------------------|
D-------------------------------------|
A-------------------------------------|
e-------------------------------------| 

Eagle flew out of the night

E-------------------------------------|
B--4---2------------------------------|
G--4---3---4--4-----------------------|
D--4---4---4--4-----------------------|
A-------------------------------------|
e-------------------------------------| 

He was something to observe

E-------------------------------------|
B--4---2------------------------------|
G--4---3---4--4-----------------------|
D--4---4---4--4-----------------------|
A-------------------------------------|
e-------------------------------------| 

Came in close, I heard a voice

E-------------------------------------|
B--4---2---0--0-----------------------|
G--4---3---4--4-----------------------|
D-------------------------------------|
A-------------------------------------|
e-------------------------------------| 

Standing, stretching every nerve

E-------------------------------------|
B--4---2---4--0-----------------------|
G--4---3---4--4-----------------------|
D-------------------------------------|
A-------------------------------------|
e-------------------------------------| 

I had to listen, had no choice

E-------------------------------------|
B--4---2---4--0-----------------------|
G--4---3---4--4-----------------------|
D-------------------------------------|
A-------------------------------------|
e-------------------------------------| 

I did not believe the information

E-------------------------------------|
B--4---2---4--0-----------------------|
G--4---3---4--4-----------------------|
D-------------------------------------|
A-------------------------------------|
e-------------------------------------| 

Just had to trust imagination

E-------------------------------------|
B--4---2---4--0-----------------------|
G--4---3---4--4-----------------------|
D-------------------------------------|
A-------------------------------------|
e-------------------------------------| 

My heart going boom boom boom

E-------------------------------------|
B--4--2--4------5---------4-----------|
G--4--3--4------4---------4-----------|
D---------------7---------4-----------|
A-------------------------------------|
e-------------------------------------|

Son, he said, grab your things I've come to take you home

E-------------------------------------|
B--9-------2--------------------------|
G--9-------3----------4---------------|
D--9-------4----------4---------------|
A-------------------------------------|
e-------------------------------------|

Back to intro, and repeat for following verses.


            
            
Suggest correction
Creating personal tab
Creating personal tab
You can edit any tab online and save it as your Personal.

You can edit, replace or remove any tab part or add personal notes – all changes will be seen only by you.

Personal tabs can be accessed anytime from any device, even offline.
Learn more »
comments
print report bad tab
4 comments total. Showing first comments.
0 reply
jmerv729 10 Jun 24, 2009 08:23 PM

oh my god this is the best tab ever! its sooo accurate! its incredible!!! really! im not joking! whoever tabbed this is amazing! i think hes also got a good version of hotel california - so i hear

0 reply
Scarface88 77 Sep 03, 2009 06:49 AM

I wish all tabs were set out as plainly and simply as this. Well done.

+2 reply
wodewick72 146 Oct 07, 2009 12:43 PM

I was a bit confused after seeing this tab but after seeing this on You tube I can see what you're getting at. It's pretty close the same but you get to here the guy on you tube. Have a looks
http://www.youtube.com/watch?v=DHq_H2MXF_k
This is coolio. Hope you like! It's all aout the capo on 2!!!!

guest
You may want to rate the tab now too:
select rating
Wanna post a correction for this tab? Suggest correction