Oops, an error
Loading. Please wait.

Death Before Disco tab

233 views 1 this week
no commentswrite comment
1 2 3 4 5
2 more votes to show rating
add to favorites
×
Save as Personal and add changes to this tab that will be seen only by you. Learn more ›
×
You can save this tab as Personal to edit and correct it or add notes. All changes will be seen only by you. Learn more »
launch autoscroll
font size
0
reset
how to read this tab
guitar tuner
edit
Autoscroll
slow
fast
+/-
esc
set tempo
stop
Author
Difficulty
12(p0)	= lichte pull-off die ontstaat zonder de snaar daadwerkelijk weg te slaan/
	   slight pull-off, which arises without actual knocking off the string
7b	= druk de snaar een klein beetje op/bend the string a little bit
\	= slide omlaag/slide down
<	= strijk plectrum over snaren omlaag/bow down pick across strings
x	= percussieslag/percussionstrike
10.10	= speel zeer snel achter elkaar/play very fast behind each other
>7	= accent geven/give accent
R	= rust/rest

INTRO (bij benadering/at approach)
E -5(p0)-2(p0)-----------------------------------------------------------------|
B -------------5(p0)-2(p0)-----------------------------------------------------|
G -------------------------4(p0)-2(p0)-5(p0)-4(p0)-----------------------------|
D -------------------------------------------------4(p0)-3(p0)-2(p0)-----------|
A -------------------------------------------------------------------4-4-3-5-4-|
E -drumbreak-------------------------------------------------------------------|

RIFF A

rode tablature: laat de laatste keer voor riff B en C weg/      
red tabs: leave out the last time before riff B and C
E ------------------------|
B ------------------------|
G ------------------------|
D ------------------------|
A -4-4--4-4-4--4---2---3--|
E -2-2--2-2-2--2-0-0---1--|

RIFF B COUPLET/VERSE

E --------------------------|
B --------------------------|
G --------------------------|
D ->4---------\->2----------|
A ->2---------\->0----------|
E --------------------------|

RIFF C REFREIN/CHORUS

E -------------------------|-------------------------|
B -------------------------|-------------------------|
G -------------------------|-------------------------|
D -------------------------|-------------------------|
A -2-2--2-2-2--2--2-2--2-2-|-4-4--4-4-4--4--4-4--4-4-|
E -0-0--0-0-0--0--0-0--0-0-|-2-2--2-2-2--2--2-2--2-2-|

E -------------------------|-------------------------|
B -------------------------|-------------------------|
G -------------------------|-------------------------|
D -2-2--2-2-2--2--2-2--2-2-|-4-4--4-4-4--4--4-4--4-4-|
A -0-0--0-0-0--0--0-0--0-0-|-2-2--2-2-2--2--2-2--2-2-|
E -------------------------|-------------------------|

RIFF D (speel twee maal/play two times)

E ------------------------------------|---------------------------------|
B ------------------------------------|---------------------------------|
G ------------------------------------|---------------------------------|
D ------------------------------------|---------------------------------|
A --------0-0-1-1-2-2-3-3-2-2-1-1-0-0-|---------------------------------|
E -2-2-2------------------------------|-2-2-2-2-2-2-2-2-2-2-2-2-2-2-2-2-|

RIFF D2


  1.2.4. keer/time
E ------------------------------------|---------------------------------|
B ------------------------------------|---------------------------------|
G ------------------------------------|---------------------------------|
D ------------------------------------|---------------------------------|
A --------0-0-1-1-2-2-3-3-2-2-1-1-0-0-|---------------------------------|
E -2-2-2------------------------------|-2-2-2-2-2-2-2-2-2-2-2-2-2-2-2-2-|

  3. keer/time
E ------------------------------------|---------------------------------|
B ------------------------------------|---------------------------------|
G ------------------------------------|---------------------------------|
D --------0-0-1-1-2-2-3-3-2-2-1-1-0-0-|---------------------------------|
A -2-2-2------------------------------|-2-2-2-2-2-2-2-2-2-2-2-2-2-2-2-2-|
E ------------------------------------|---------------------------------|

BREAK A (bij benadering/at approach)
(à la intro/like intro)
E -5(p0)-2(p0)------------------------------------------------------------------|
B -------------5(p0)-2(p0)------------------------------------------------------|
G -------------------------4(p0)-2(p0)-5(p0)-4(p0)------------------------------|
D -------------------------------------------------4(p0)-3(p0)-2(p0)------------|
A -------------------------------------------------------------------4--4b-3b-R-|
E -drumbreak--------------------------------------------------------------------|

opmerking: hierna volgt riff A/ 
note: after this, riff A follows
BREAK A2 (bij benadering/at approach)
(à la intro/like intro)
E -10(p0)-7(p0)--------------------------------------------------------------------|
B --------------10(p0)-7(p0)-------------------------------------------------------|
G ---------------------------9(p0)-7(p0)-10(p0)-9(p0)------------------------------|
D ----------------------------------------------------9(p0)-8(p0)-7(p0)------------|
A ----------------------------------------------------------------------9--9b-8b-R-|
E -drumbreak-----------------------------------------------------------------------|

opmerking: hierna volgt riff A2/ 
note: after this, riff A2 follows
RIFF A2

  1.2.3. keer/time		       4. keer/time
E ------------------------|------------------------|
B ------------------------|-drumroffels/-----------|
G ------------------------|-drumfills--------------|
D ------------------------|------------------------|
A -9-9--9-9-9--9---7---8--|->9--R------------------|
E -7-7--7-7-7--7-x-5---6--|->7--R------------------|

opmerking: hierna volgen nog 1 of meerdere malen riff A, B en C en break A/ 
note: after this there will appear yet one time or more, 
riff A, B and C and break A
EINDE SONG/END OF SONG (bij benadering/at approach)      
(lick à la intro/lick like intro)
E -5(p0)-2(p0)--------------------------------------------------------------|
B -------------5(p0)-2(p0)--------------------------------------------------|
G -------------------------4(p0)-2(p0)-5(p0)-4(p0)--------------------------|
D -------------------------------------------------4(p0)-3(p0)-2(p0)--------|
A -------------------------------------------------------------------4--4-3-|
E -drumbreak----------------------------------------------------------------|

E ----------------------------------------------|
B ----------------------------------------------|
G -0--------------------------------------------|
D -x---------------------<----------------------|
A -2--b------------------<----------------------|
E ----------------------------------------------|

rode tablature: speel meerdere malen snel achter elkaar/  
red tabs: play a greater times fast behind each other
E ------------------------------------------------------|
B ------------------------------------------------------|
G ------------------------------------------------------|
D ------------------------------------------------------|
A ->4--4.4.4.4.4.4.4.4-->4-->4-->4-R->4-R->4--b--->4\-R-|
E ->2--2.2.2.2.2.2.2.2-->2-->2-->2-R->2-R->2--b--->2\-R-|


Enjoy! DopeStar

            
            
Suggest correction
Creating personal tab
Creating personal tab
You can edit any tab online and save it as your Personal.

You can edit, replace or remove any tab part or add personal notes – all changes will be seen only by you.

Personal tabs can be accessed anytime from any device, even offline.
Learn more »
Give kudos to tab author, rate the tab!
1 2 3 4 5
comments
print report bad tab
guest
You may want to rate the tab now too:
select rating
Wanna post a correction for this tab? Suggest correction