Oops, an error
Loading. Please wait.

Megasdetitas tab

version 1
version 1

Whole song

Interactive

966 views 1 this week
no commentswrite comment
1 2 3 4 5
2 more votes to show rating
add to favorites
×
Save as Personal and add changes to this tab that will be seen only by you. Learn more ›
×
You can save this tab as Personal to edit and correct it or add notes. All changes will be seen only by you. Learn more »
launch autoscroll
font size
0
reset
how to read this tab
guitar tuner
edit
Autoscroll
slow
fast
+/-
esc
set tempo
stop
Author
Difficulty
7h8	= hammer-on
7p5	= pull-off
8b9	= druk 8e fret op naar 9e/bend 8th fret to 9th
7b8r7	= druk 7e fret op naar 8e en laat weer terugkomen in oude positie/
	  bend 7th fret to 8th and release to old position
7b	= druk de snaar een klein beetje op/bend the string a little bit
~	= vibrato/vibration
\	= slide omlaag/slide down
x	= percussieslag/percussionstrike
<7>	= kunstmatige flagolet/artificial harmonic
^	= opslag/upstroke
(2)	= wordt af en toe gespeeld/ is played sometimes
>7	= accent geven/give accent
*	= onduidelijk/unclear
R	= rust/rest

cursieve cijfers/ italic numbers = laat doorklinken/let ring 

RIFF A
E --------------------------------------|
B --------------------------------------|
G --------------------------------------|
D --------------------------------------|
A --------------------------------------|
E ->6b---0-5-0-3-0-0->6-0-0->5-0->3-0-0-|

RIFF A2 (laaste keer voor break/last time before break)
rode tablature: licht buigen/
red tabs: bend slightly
E --------------------------------------|
B --------------------------------------|
G --------------------------------------|
D --------------------------------------|
A --------------------------------------|
E ->6b---0-5-0-3-0-0->6-0-0->5-0->3b----|

BREAK (met variaties/with variations)

(bas speelt vanuit A/bass plays in key of A) 

E ->0-------------->0---------------|->0--------------(>0-R->0-R->0-R->0)|
B ->2-----R-------->2----x-R--------|->2----x-R-------(>2-R->2-R->2-R->2)|
G ->2---x-R-------->2----x-R--------|->2----x-R-------->2-R->2-R->2-R->2-|
D ->2---x-R-------->2----x-R--------|->2----x-R-------->2-R->2-R->2-R->2-|
A ->0-----R-------->0------R--------|->0------R-------->0-R->0-R->0-R->0-|
E ----------------------------------|------------------------------------|

RIFF B (met kleine variaties/with little variations)

(bas speelt als basis/bass plays as basis: E - A - E - riff) 

E ----------------------------------|------------------------------------|
B ----------------------------------|------------------------------------|
G ----------------------------------|------------------------------------|
D ----------------------------------|------------------------------------|
A -7-R------------------------------|->7->7->7\-R------------------------|
E -0-R------------------------------|->5->5->5\-R------------------------|

E ----------------------------------|------------------------------------|
B ----------------------------------|------------------------------------|
G ----------------------------------|------------------------------------|
D ----------------------------------|------------------------------------|
A ->7->7->7\-R----------------------|->5->5->5-R-------------------------|
E ->5->5->5\-R----------------------|->3->3->3-R-------------------------|

E ----------------------------------|->0-R-------------------------------|
B ----------------------------------|->0-R-------------------------------|
G ----------------------------------|->1-R------geen drums/--------------|
D ----------------------------------|->2-R-------no drums----------------|
A ->7->7---9-----8-----7----5-----2-|->2-R-------------------------------|
E ->5->5---7-----6-----5----3-----0-|------------------------------------|

SOLO 1 (bij benadering/at approach)

(bas speelt vanuit C/bass plays in key of C)
rode tablature: lichte flagolet/
red tabs: light artificial harmonic

blauwe tablature: lichte flagolet 3/4e noot opdrukken/
blue tabs: bend light artificial harmonic 3/4th note
E ------------------------|---------------------|
B -5-5--^6-^5--7b8-6-<5>--|-5-5--5b6-5---6br-5--|
G -5-5--^5-----5b---------|-5-5--------5-----5--|
D ------------------------|---------------------|
A ------------------------|---------------------|
E ------------------------|---------------------|

E --------------------|-------------------------|
B -5-5--6-5--7b8-6-5--|-<15b16>-R---------------|
G -5-5-------5b-------|-------------x-10br-R----|
D --------------------|-------------------------|
A --------------------|-------------------------|
E --------------------|-------------------------|

RIFF C (na solo 1 en 2/after solo 1 and 2)

E ---------------------------------------------------------|
B ---------------------------------------------------------|
G ---------------------------------------------------------|
D ---------------------------------------------------------|
A ---------2---2-------2-2---2---------------------2-2---2-|
E -3b--p0--0---0---3b--0-0---0---3b-0--3b-0--3b-0--0-0---0-| 

opmerking: G tonen langzaam buigen/
note: bend G tones slowly
SOLO 2 (bij benadering/at approach) 

(bas speelt vanuit C/bass plays in key of C)
E ------------------|-------------------|
B -5-5--6-5--8-6-5--|---5---6-5--7b8-R--|
G -5-5-------5-5-5--|-5---5------5b--R--|
D ------------------|-------------------|
A ------------------|-------------------|
E ------------------|-------------------| 

E --------------------|----------------------|
B -5-5--5-5--7b8-6-R--|----------------------|
G -5-5-------5--------|-10-R-10-R-<10b12>----|
D --------------------|----------------------|
A --------------------|----------------------|
E --------------------|----------------------|

RIFF A3 (laaste keer voor solo 3/last time before solo 3)
E -----------------------------------------------|
B -----------------------------------------------|
G -----------------------------------------------|
D -----------------------------------------------|
A -----------------------------------------------|
E ->6b---0-5-0-3-0-0-0-0-0-0-0-0-0-0-0-0-0-0-0-0-|

SOLO 3 

(bas speelt vanuit G/bass plays in key of G)
rode tablature: licht buigen/
red tabs: bend slightly

blauwe tablature: lichte flagolet/
blue tabs: light artificial harmonic
E ---------------------------|---------------------------|
B ----------<1>-R------------|----------<1>-R------------|
G -2b--0-----------<3p2p0>-R-|-2b--0-----------<3p2p0>-R-|
D ---------------------------|---------------------------|
A ---------------------------|---------------------------|
E ---------------------------|---------------------------|

E ---------------------------|---------------------------|
B ----------<1>-R------------|---------------------------|
G -2b--R--x--------<3p2p0>-R-|--<0h2p0>------------------|
D ---------------------------|----------0-R-5-R-5~-------|
A ---------------------------|---------------------------|
E ---------------------------|---------------------------|

opmerking: deze vier maten worden steeds ongeveer hetzelfde herhaald en verdwijnen 
in een fade-out/
note: these four bars are repeated ever as approx. the same and disappears in a fade-out


Good Luck !!! DopeStar

            
            
Suggest correction
Creating personal tab
Creating personal tab
You can edit any tab online and save it as your Personal.

You can edit, replace or remove any tab part or add personal notes – all changes will be seen only by you.

Personal tabs can be accessed anytime from any device, even offline.
Learn more »
Give kudos to tab author, rate the tab!
1 2 3 4 5
comments
print report bad tab
guest
You may want to rate the tab now too:
select rating
Wanna post a correction for this tab? Suggest correction