Oops, an error
Loading. Please wait.

Pedal To The Metal tab

1,611 views 1 this week
2 commentsread comments
1 2 3 4 5
x 4
add to favorites
×
Save as Personal and add changes to this tab that will be seen only by you. Learn more ›
×
You can save this tab as Personal to edit and correct it or add notes. All changes will be seen only by you. Learn more »
launch autoscroll
font size
0
reset
how to read this tab
guitar tuner
edit
Autoscroll
slow
fast
+/-
esc
set tempo
stop
Author
Difficulty
verklaring tekens/explanation signs:
8b9     = druk 8e fret op naar 9e/bend 8th fret to 9th
7b      = druk de snaar een klein beetje op/bend the string a little bit
~       = vibrato/vibration
~~      = veel vibrato/much vibration
\       = slide omlaag/slide down
/       = slide omhoog/slide up
>7      = accent geven/give accent
^       = opslag/upstroke
R       = rust/rest

RIFF A COUPLET/VERSE

rode tablature: laatste keer voor riff B weglaten/
red tabs: leave out last time before riff B
E ------------------|
B ------------------|
G ------------------|
D ------------------|
A -2--4-R-4-R-4-R-4-|
E -0--2-R-2-R-2-R-2-|

RIFF B REFREIN/VERSE

E -----------------------|-----------------------|
B -7-5-------------------|-7-5-------------------|
G -----6-4~---4---4------|-----6-4~---5-4--------|
D --------------7---4~---|----------------7-4~---|
A -----------------------|-----------------------|
E -----------------------|-----------------------|

E -----------------------|--------------------------------|
B -7-5-------------------|--------------------------------|
G -----6-4~---4---4------|-2-2-2-2-2-2-2---4-4-4-4-4-4-4--|
D --------------7---4~---|-0-0-0-0-0-0-0---2-2-2-2-2-2-2--|
A -----------------------|--------------------------------|
E -----------------------|--------------------------------|

opmerking: bas speelt ongeveer hetzelfde, 
maar pakt als eerste vier tonen van de eerste drie maten: B - A - F# - E/
note: bass plays nearly the same, 
but plays as first four notes of the first three bars: B - A - F# - E
RIFF C BRUG 1/BRIDGE 1 

E -------------|
B -------------|
G -------------|
D -------------|
A -4--2--2-3-4-|
E -2--0--0-1-2-|

RIFF D BRUG 2/BRIDGE 2

E ---------------------------------|-----------------------------------|
B ---------------------------------|-----------------------------------|
G ---------------------------------|-----------------------------------|
D -4---4-4-4-4-4-4-4-4-4-4-4-4-4-4-|---4---4-4-4-4-4-4-4-4-4-4-4-4-4-4-|
A -2---2-2-2-2-2-2-2-2-2-2-2-2-2-2-|-0-2---2-2-2-2-2-2-2-2-2-2-2-2-2-2-|
E ---------------------------------|-----------------------------------|

opmerking: een enkele keer wordt in de 2e maat het B5 akkoord vervangen
door een licht opgedrukte enkele B toon/ 
note: a single time the B5 chord in the 2nd bar is replaced by a
little bended single B tone
RIFF E AFRONDING BRUG/ROUNDING BRIDGE

gitaar 1/guitar 1
E ---------------------------------|---------------------------------|
B ---------------------------------|---------------------------------|
G -2---2-2-2-2-2-2-2-2-2-2-2-2-2-2-|-4-4-4-4-4-4-4-4>4>4-R-geen drums|
D -0---0-0-0-0-0-0-0-0-0-0-0-0-0-0-|-2-2-2-2-2-2-2-2>2>2-R--no drums-|
A ---------------------------------|---------------------------------|
E ---------------------------------|---------------------------------|

gitaar 2/guitar 2 (1e keer riff E/1st time riff E)
E ---------------------------------|-----------------------------------|
B -3-1-3---3-1-3---3-1-3---3-1-3---|-5-3-5---5-3-5---5-6~~-------------|
G -------5-------5-------5-------5-|-------7-------7-------------------|
D ---------------------------------|-----------------------------------|
A ---------------------------------|-----------------------------------|
E ---------------------------------|-----------------------------------|

gitaar 2/guitar 2 (2e keer riff E/2st time riff E)
E ---------------------------------------|----------------------------------------|
B -13b15--13-R-10-----13b15--15-13-15-13-|->15b17->15b17->15b17->15b17-15b17~-\---|
G ---------------------------------------|----------------------------------------|
D ----------------12---------------------|----------------------------------------|
A ---------------------------------------|----------------------------------------|
E ---------------------------------------|----------------------------------------|

SOLO

(bas als riff A/bass like riff A)

E ->2>2>2>2>2>2>2>2>2>2>2>2----------|--------------------------------|
B ->2>2>2>2>2>2>2>2>2>2>2>2--4b--2---|-----------------4b-----4-R-2-R-|
G ---------------------------4b--2b--|----------2---2--4b5----4-R-2-b-|
D -----------------------------------|->4>4>4>4---4-------------------|
A -----------------------------------|--------------------------------|
E -----------------------------------|--------------------------------|

E ->2>2>2>2>2>2>2>2>2>2>2>2----------|--------------------------------|
B ->2>2>2>2>2>2>2>2>2>2>2>2--4b--2---|-----------------4b-----4b--2-R-|
G ---------------------------4b--2b--|----------2---2--4b5----4b--2-R-|
D -----------------------------------|->4>4>4>4---4-------------------|
A -----------------------------------|--------------------------------|
E -----------------------------------|--------------------------------|

(bas als riff B/bass like riff B)

E -----------------------|--------------------------------|
B -7-5-------------------|-7-5---7/9-R-7/9-9--7-^5-5------|
G -----6-4~---5-4--------|-----6---------------------6~~--|
D ----------------7-4~---|--------------------------------|
A -----------------------|--------------------------------|
E -----------------------|--------------------------------|

E -----------------------|------------------------------------|
B -7-5-------------------|-3---3-3-3-3-3-3---5---5-5-5-5-5-5--|
G -----6-4~---5-4--------|-2---2-2-2-2-2-2---4---4-4-4-4-4-4--|
D ----------------7-4~---|-0---0-0-0-0-0-0---2---2-2-2-2-2-2--|
A -----------------------|-0-----------------2----------------|
E -----------------------|------------------------------------|

RIFF B2 (na solo/after solo )

E -----------------------|-----------------------|
B -----------------------|-----------------------|
G -----------------------|-----------------------|
D -4-2-------------------|-4-2-------------------|
A -----4-2----2-0-2------|-----4-2----3-2-0------|
E ------------------2----|------------------2----|

E -----------------------|--------------------------------|
B -----------------------|--------------------------------|
G -----------------------|-2-2-2-2-2-2-2--/4-4-4-4-4-4-4--|
D -4-2-------------------|-0-0-0-0-0-0-0--/2-2-2-2-2-2-2--|
A -----4-2----2-0-2------|--------------------------------|
E ------------------2----|--------------------------------|

RIFF C2 (na riff B2/after riff B2)

     normaal/normal          laatste keer/last time

E ----------------|---------------------------------------|
B ----------------|---------------------------------------|
G ----------------|---------------------------------------|
D ----------------|--------------4--~---------------------|
A -4-4-2--2-2-3-4-|-4-4-2--2-2-3-4--~---------------------|
E -2-2-0--0-0-1-2-|-2-2-0--0-0-1-2------------------------|

            
            
Suggest correction
Creating personal tab
Creating personal tab
You can edit any tab online and save it as your Personal.

You can edit, replace or remove any tab part or add personal notes – all changes will be seen only by you.

Personal tabs can be accessed anytime from any device, even offline.
Learn more »
comments
print report bad tab
2 comments total.
0 reply
aartisookniemiz 139 Oct 06, 2007 01:54 AM

PPSR is Vet !!!!!!!!!!!

0 reply
jleavitt84 10 Mar 26, 2014 12:10 PM

I have tried learning how to play the guitar but I wasn't very successful. I have small hands and short fingers so it doesn't help me when I'm trying to push down on the strings. I like the guitar and wish I could play, but for now I think I'm going to stick with the piano.

http://www.hollyheightsncc.com/services-2/

guest
You may want to rate the tab now too:
select rating
Wanna post a correction for this tab? Suggest correction