Oops, an error
Loading. Please wait.

Punk Is Dead tab

152 views 1 this week
no commentswrite comment
1 2 3 4 5
3 more votes to show rating
add to favorites
×
Save as Personal and add changes to this tab that will be seen only by you. Learn more ›
×
You can save this tab as Personal to edit and correct it or add notes. All changes will be seen only by you. Learn more »
launch autoscroll
font size
0
reset
how to read this tab
guitar tuner
edit
Autoscroll
slow
fast
+/-
esc
set tempo
stop
Author
Difficulty
7h8     = hammer-on
7p5     = pull-off
7b      = druk de snaar een klein beetje op/bend the string a little bit
~       = vibrato/vibration
/       = slide omhoog/slide up
x       = percussieslag/percussionstrike
10.10   = speel snel achter elkaar/play fast behind each other
(2)     = wordt af en toe gespeeld/ is played sometimes
>7      = accent geven/give accent
R       = rust/rest

cursieve cijfers/ italic numbers = laat doorklinken/let ring 

RIFF A INTRO, BREAK & OUTRO
E -------------------------|
B ->0------->0------->0----|
G ->0------->0------->0----|
D ->0------->0------->0----|
A ->x------->x------->x----|
E ->3b------>4b------>5b---|
opmerking: buig eerst twee accoorden langzaam/ 
note: bend first two chords slowly

RIFF B COUPLET/VERSE

rode tablature: laat weg als erna riff C volgt/
red tabs: leave out when riff C follows afterwards
E ----------------------------------|
B ----------------------------------|
G -2------------------------>2--->2-|
D -2----------------4p2----->2--->2-|
A -0--0-3h4-0-0---------3h4->0--->0-|
E --------------3b------------------|

RIFF C BRUG/BRIDGE

E -----------------|-----------------|-----------------|
B -----------------|-----------------|-----------------|
G -----------------|-----------------|-----------------|
D -6-6-6-6-6-6-6---|-----------------|-4-4-4-4-4-4-4-4-|
A -4-4-4-4-4-4-4---|-4-4-4-4-4-4-4---|-2-2-2-2-2-2-2-2-|
E -----------------|-2-2-2-2-2-2-2---|-----------------|

RIFF B2

(direkt na riff C en D; met variaties - maat wordt eerder afgebroken als
na deze riff, riff A of D volgt/
right after riff C and D; with variations - bar is adjourned earlier when
this riff is followed by riff A or D)
E -----------------------------------|
B -----------------------------------|
G -2---------------------------------|
D -2---------------------------------|
A -0--0-3h4-0-0-0.0--3h4-0-3h4-0-----|
E -------------------------------h3--|

RIFF D REFREIN/CHORUS

E ------|--------------|---------------|
B ->3---|--------------|---------------|
G ->2---|--------------|---------------|
D ->0---|-2--2-2--2-2--|-------2--2-2--|
A ------|-0--0-0--0-0--|-------0--0-0--|
E ------|--------------|-0-0-3---------|

E ------------------|---------------|
B --3-3-3-3-3-3-3-3-|---------->3---|
G --2-2-2-2-2-2-2-2-|---------->2---|
D --0-0-0-0-0-0-0-0-|-2--2-2--->0---|
A -(0)--------------|-0--0-0--------|
E ------------------|---------------|

E --------------|---------------|
B --------------|---------------|
G --------------|---------------|
D -2--2-2--2-2--|-------2--2-2--|
A -0--0-0--0-0--|-------0--0-0--|
E --------------|-0-0-3---------|

E ------------------|
B --3-3-3-3-3-3-3-3-|
G --2-2-2-2-2-2-2-2-|
D --0-0-0-0-0-0-0-0-|
A -(0)--------------|
E ------------------|
opmerking: direkt hierna volgt riff B2 of B3/ 
note: right after this, riff B2 or B3 follows

RIFF B3

(direkt na riff C en D, maar alleen later in song als riff A
voor de tweede keer is gespeeld; met variaties/
right after riff C and D, but only later on in the song
when riff A is played for the second time; with variations)
E -------------------------------|
B -------------------------------|
G -2-----------------------------|
D -2--------------4-R--2---------|
A -0--0-3h4-0---0--------3h4-3~--|
E ------------3------------------|

RIFF A2 EINDE SONG/END OF SONG

(gitaarlick; bas speelt als riff A/guitarlick; bass plays like riff A) 
E -/5--5-5-5---5--5-5-5---------|
B -/5--5-5-5---7--7-7-7---------|
G ------------------------>2--R-|
D ------------------------>2--R-|
A ------------------------>0--R-|


Do it :P  DopeStar

            
            
Suggest correction
Creating personal tab
Creating personal tab
You can edit any tab online and save it as your Personal.

You can edit, replace or remove any tab part or add personal notes – all changes will be seen only by you.

Personal tabs can be accessed anytime from any device, even offline.
Learn more »
Give kudos to tab author, rate the tab!
1 2 3 4 5
comments
print report bad tab
guest
You may want to rate the tab now too:
select rating
Wanna post a correction for this tab? Suggest correction