Oops, an error
Loading. Please wait.

Red Wings tab

619 views 1 this week
no commentswrite comment
1 2 3 4 5
3 more votes to show rating
add to favorites
×
Save as Personal and add changes to this tab that will be seen only by you. Learn more ›
×
You can save this tab as Personal to edit and correct it or add notes. All changes will be seen only by you. Learn more »
launch autoscroll
font size
0
reset
how to read this tab
guitar tuner
edit
Autoscroll
slow
fast
+/-
esc
set tempo
stop
Author
Difficulty
verklaring tekens/explanation signs:

\       = slide omlaag/slide down
/       = slide omhoog/slide up
x       = percussieslag/percussionstrike
0       = afdempen/mute strings
0       = licht afdempen/mute strings slightly
(2)     = wordt af en toe gespeeld/ is played sometimes
>7      = accent geven/give accent

RIFF A (met variaties/with variations)
E ->(0)------------------------(>0)------------------|
B ->(0)------------------------->3-------------------|
G ->(x)------------------------->2-------------------|
D ->-2-----------------------x-->0------>3---->2-----|
A ->-2--------(2)--------------(>0)----->1---->0-----|
E ->-0--------(0-0-0-0-0-0-)---------------------(3)-|

opmerking 1: een tweede gitaar speelt xx2xx0 in plaats van eerste accoord/ 
note 1: a second guitar plays xx2xx0 in stead of first chord

opmerking 2: bas speelt drie maal E - G - G# en dan E - G - E - G - E - Bb - A - G/ 
note 2: bass plays three times E - G - G# and then E - G - E - G - E - Bb - A - G

RIFF B 

(begint als break; tweede gitaar valt in met feedback/
starts as break; second guitar enters with feedback)

      1.3. keer/time
E ----------------------------------------|
B ----------------------------------------|
G ----------------------------------------|
D ----------------------------------------|
A ->2-----5----7----5----8----7----5/7\5--|
E ->0---0-3--0-5--0-3--0-6--0-5--0-3/5\3--|

      2. keer/time
E ---------------------------------------------|
B ---------------------------------------------|
G ---------------------------------------------|
D ---------------------------------------------|
A ->2-----5----7----5----8----7---->5-->5-->5--|
E ->0---0-3--0-5--0-3--0-6--0-5--0->3-->3-->3--|

      4. keer/time
E ---------------------------------------|
B ---------------------------------------|
G ---------------------------------------|
D ---------------------------------------|
A ->2-----5----7----5----8-8-8--8-8-8-8--|
E ->0---0-3--0-5--0-3--0-6-6-6--6-6-6-6--|

RIFF C

E -------------------------|---------------------------|
B -------------------------|---------------------------|
G -------------------------|---------------------------|
D -------------------------|---------------------------|
A -5-5-5-5-5-5-5-5-5-5-5-5-|---8-8-8-8-8-8-8-8-8-8-8-8-|
E -3-3-3-3-3-3-3-3-3-3-3-3-|-/-6-6-6-6-6-6-6-6-6-6-6-6-|

E -----------------------------|---------------------------------------|
B -----------------------------|--(5)(5)(5)(5)(5)(5)(3)(3)(3)(3)(3)(3)-|
G -----------------------------|--(5)(5)(5)(5)(5)(5)(3)(3)(3)(3)(3)(3)-|
D -----------------------------|---5--5--5--5--5--5--3--3--3--3--3--3--|
A -----3-3-3-3-3-3-3-3-3-3-3-3-|-/-3--3--3--3--3--3--1--1--1--1--1--1--|
E -(\)-1-1-1-1-1-1-1-1-1-1-1-1-|---------------------------------------|

E -------------------------|---------------------------|
B -------------------------|---------------------------|
G -------------------------|---------------------------|
D -------------------------|---------------------------|
A -5-5-5-5-5-5-5-5-5-5-5-5-|---8-8-8-8-8-8-8-8-8-8-8-8-|
E -3-3-3-3-3-3-3-3-3-3-3-3-|-/-6-6-6-6-6-6-6-6-6-6-6-6-|

E -----------------------------|-drumroffels/-------|
B -----------------------------|-drumfills----------|
G -----------------------------|--------------------|
D ---------------------------3-|->5------5->3-------|
A -----3-3-3-3-3-3-3-3-3-3-3-1-|->3----2/3->1---->5-|
E -(\)-1-1-1-1-1-1-1-1-1-1-1---|----------------->3-|

opmerking: bespeel alles met staccato behalve laatste maat;
hierna volgt riff B weer/ 
note: play everything with staccato except the last bar;
after this, riff B appears again
SOLO

door 2e gitaar over riff B met een korte uitloop over riff C/
by 2nd guitar over riff B with short outlet over riff C
EINDE SONG/END OF SONG

(na laatste keer riff C/after last time riff C)

E -----------------------------------|
B -----------------------------------|
G -----------------------------------|
D -----------------------------------|
A -2-\--R-----feedback---------------|
E -0----R----------------------------|


            
            
Suggest correction
Creating personal tab
Creating personal tab
You can edit any tab online and save it as your Personal.

You can edit, replace or remove any tab part or add personal notes – all changes will be seen only by you.

Personal tabs can be accessed anytime from any device, even offline.
Learn more »
Give kudos to tab author, rate the tab!
1 2 3 4 5
comments
print report bad tab
guest
You may want to rate the tab now too:
select rating
Wanna post a correction for this tab? Suggest correction