Oops, an error
Loading. Please wait.

Stick It tab

121 views 1 this week
no commentswrite comment
1 2 3 4 5
2 more votes to show rating
add to favorites
×
Save as Personal and add changes to this tab that will be seen only by you. Learn more ›
×
You can save this tab as Personal to edit and correct it or add notes. All changes will be seen only by you. Learn more »
launch autoscroll
font size
0
reset
how to read this tab
guitar tuner
edit
Autoscroll
slow
fast
+/-
esc
set tempo
stop
Author
Difficulty
7h8	= hammer-on
7p5	= pull-off
7b	= druk de snaar een klein beetje op/bend the string a little bit
~	= vibrato/vibration
~~	= veel vibrato/much vibration
\	= slide omlaag/slide down
/	= slide omhoog/slide up
x	= percussieslag/percussionstrike
0	= licht afdempen/mute strings slightly
(2)	= wordt af en toe gespeeld/ is played sometimes
>7	= accent geven/give accent
*	= onduidelijk/unclear
R	= rust/rest

cursieve cijfers/ italic numbers = laat doorklinken/let ring 

RIFF A (met variaties/with variations)

rode tablature: hard aanslaan zodat toon vervormt/
red tabs: strike hard causing a distorted tone
E ----------------------------------------|
B ----------------------------------0--0--|
G ----------------------------------0--0--|
D ----------------------------------0--0--|
A ----------5--4--0--3~~------------x--x--|
E ->0-->0---------------------------3--3--|

RIFF A2 (met variaties/with variations) 

rode tablature: bas speelt hier een C5 accoord
red tabs: bass plays here a C5 chord
E -(0)-(0)------------------(5)------------|
B -(0)-(0)------------------(5)------0-----|
G -(9)-(9)----------------------(5)--0-----|
D -(9)-(9)--7--6-----5---------------0--0--|
A -(7)-(7)--5--4--0--3---------------x--x--|
E --0---0----------------------------3--3--|

RIFF B

E ---------------------------------|
B ---------------------------------|
G -2-2-2-2-2-2-2-2-2-2-2-2-2-2-2-2-|
D -2-2-2-2-2-2-2-2-2-2-2-2-2-2-2-2-|
A -0-0-0-0-0-0-0-0-0-0-0-0-0-0-0-0-|
E ---------------------------------|

RIFF C

      1.2.keer/time
E --3---------------|--------------------|
B --3---------------|--------------------|
G --5---------------|--------------------|
D --5-------5-------|--------------------|
A --3-------5-------|-4/5--5-5--4/5--5-5-|
E ----------3-------|-2/3--3-3--2/3--3-3-|

      3.keer/time
E --3---------------|--------------------|--------------------|
B --3---------------|--5-----------------|--7-----------------|
G --5---------------|--5-----------------|--7-----------------|
D --5-------5-------|--5-----------------|--7-----------------|
A --3-------5-------|--x-----------------|--x-----------------|
E ----------3-------|--3-----------------|--5-----------------|

RIFF D

rode tablature: korte toon
red tabs: short tone
E -----------------------------------------|
B -----------------3--3-3-3--*--1~--->1*-R-|
G -----------------2--2-2-2--*--0---->0*-R-|
D -2-2-2-2---------0--0-0-0--*2-2~--->2*-R-|
A -0-0-0-0-3bp0-0------------*0h3~--->3*-R-|
E -----------------------------------------|

opmerking: een tweede gitaar speelt hier hoge A tonen/
note: a second guitar plays here high A tones

RIFF E (à la riff B/like riff B)
E ---------------------------------|
B ---------------------------------|
G ---------------------------------|
D -5-5-5-5-5-5-5-5-5-5-5-5-5-5-5-5-|
A -5-5-5-5-5-5-5-5-5-5-5-5-5-5-5-5-|
E -3-3-3-3-3-3-3-3-3-3-3-3-3-3-3-3-|

RIFF A3 (zachtjes gespeeld vòòr de solo/played softly before the solo)
E -------------------------------------|
B -------------------------------------|
G -----------------------*0----------*-|
D -----------------------*0---------0*-|
A --------5--4--0--3~~---*----------x*-|
E -0--0------------------*-----3----3*-|

SOLO

Wordt door tweede gitaar gespeeld over riff D/is played by second guitar over riff D

EINDRIFF/ENDRIFF

rode tablature: de tweede gitaar speelt hier een C toon/
red tabs:the second guitar plays here a C tone
E -----------------------------5-5-5-------|
B -----------------3-----------5-5-5-------|
G -----------------2-----------5-5-5-------|
D -2-2-2-2---------0-----------5-5-5->7\-R-|
A -0-0-0-0-3bp0-0-------------------->7\-R-|
E ----------------------------------->5\-R-|


            
            
Suggest correction
Creating personal tab
Creating personal tab
You can edit any tab online and save it as your Personal.

You can edit, replace or remove any tab part or add personal notes – all changes will be seen only by you.

Personal tabs can be accessed anytime from any device, even offline.
Learn more »
Give kudos to tab author, rate the tab!
1 2 3 4 5
comments
print report bad tab
guest
You may want to rate the tab now too:
select rating
Wanna post a correction for this tab? Suggest correction