Oops, an error
Loading. Please wait.

Surfwrecker tab

455 views 1 this week
no commentswrite comment
1 2 3 4 5
2 more votes to show rating
add to favorites
×
Save as Personal and add changes to this tab that will be seen only by you. Learn more ›
×
You can save this tab as Personal to edit and correct it or add notes. All changes will be seen only by you. Learn more »
launch autoscroll
font size
0
reset
how to read this tab
guitar tuner
edit
Autoscroll
slow
fast
+/-
esc
set tempo
stop
Author
Difficulty
7h8	= hammer-on
7p5	= pull-off
8b9	= druk 8e fret op naar 9e/bend 8th fret to 9th
b9	= sla opgeduwde toon aan /strike bended tone
7b	= druk de snaar een klein beetje op/bend the string a little bit
~	= vibrato/vibration
~~	= veel vibrato/much vibration
\	= slide omlaag/slide down
/	= slide omhoog/slide up
x	= percussieslag/percussionstrike
>7	= accent geven/give accent
*	= onduidelijk/unclear
(	= als arpeggio aangeslagen/striked as arpeggio
R	= rust/rest

cursieve cijfers/ italic numbers =	laat doorklinken/let ring 
vette cijfers/ bold numbers =		uitloop toon of accoord uit vorige maat (niet aanslaan)
				/oultet tone or chord out of previous bar (do not strike)

INTRO
		
rode tablature: gespeeld door bas/
red tabs: played by bass
E ------|----------------|----------------|
B ------|----------------|----------------|
G ------|----------------|----------------|
D ------|->4-----------2-|->4-------------|
A ------|->2-----------0-|->2---------x-x-|
E -0h2/-|----------------|----------------|

E ----------------|----------------|----------------|
B ----------------|----------------|----------------|
G ----------------|----------------|-feedback-------|
D ->4-----------2-|->4-------------|->4-------------|
A ->2-----------0-|->2-------------|->2----------2\-|
E ----------------|----------------|----------------|

RIFF A

E -------------------------------------|
B -------------------------------------|
G -------------------------------------|
D -------------------------------------|
A -------------------------------------|
E -0-0->2-0-0->3-0-0->5-0-0->6-R-0-5p3-|

opmerking: speel eerste keer 4 keer/ 
note: play first time 4 times
RIFF B

E -------------------------------------|
B -------------------------------------|
G -------------------------------------|
D -------------------------------------|
A -0-0->2-0-0->3-0-0->5-0-0->6-R-0-5p3-|
E -------------------------------------|

opmerking: speel 2 keer en vervolg met 2 keer riff A/ 
note: play 2 times en continue with 2 times riff A
(SOLO) RIFF C (bas in B/bass in B)

E ----------------------------------|----------------------------------|
B ----------------------------------|----------------------------------|
G ------------------>7b--->7b---7-R-|------------------>7b--->7b---7-R-|
D --------------7h9-----9-----9-----|--------------7h9-----9-----9-----|
A ------7h9-0h9---------------------|------7h9-0h9---------------------|
E -7h10-----------------------------|-7h10-----------------------------|

E --------------------------|------------------|
B ------7-7------7-7------7-|-7--7-7------7\---|
G -9b11-----9b11-----9b11---|--------9b11------|
D --------------------------|------------------|
A --------------------------|------------------|
E --------------------------|------------------|

RIFF D

E --------------------------|--------------------------|
B --------------------------|--------------------------|
G --------------------------|--------------------------|
D --------------------------|--------------------------|
A -7-7-6-6-5--0-4--0-3-3-2--|--------------------------|
E --------------------------|-7-7-6-6-5--0-4--0-3-3-2--|

RIFF E (bas in E/bass in E)

E -0-0->2-0-0->3-0-0->5-0-0->6-R-0-5p3-|
B -0-0->2-0-0->3-0-0->5-0-0->6-R-0-5p3-|
G -------------------------------------|
D -------------------------------------|
A -------------------------------------|
E -------------------------------------|

opmerking: speel 4 keer/ 
note: play 4 times
RIFF F (bas in A/bass in A)

E -5-5->8-5-5->7-5-5->8-5-5->7-5-5->8-R-|-5-5->8-5->7-5->8-5-->8-5-5->7-5-5->8-R-|
B --------------------------------------|----------------------------------------|
G --------------------------------------|----------------------------------------|
D --------------------------------------|----------------------------------------|
A --------------------------------------|----------------------------------------|
E --------------------------------------|----------------------------------------|

RIFF G (bas in E/bass in E)

E -12-12->15-12-12->14-12-12->15-12-12->14-12-12->15-12-12-|
B ---------------------------------------------------------|
G ---------------------------------------------------------|
D ---------------------------------------------------------|
A ---------------------------------------------------------|
E ---------------------------------------------------------|

E -12-12->15-12-12->14-12-12->15-12-12-14\--|
B ------------------------------------------|
G ------------------------------------------|
D ------------------------------------------|
A ------------------------------------------|
E ------------------------------------------|

opmerking: vervolg met riff C en riff D/ 
note: continue with riff C and riff D
BREAK

E ----------------------------------------|
B ----------------------------------------|
G -----------drumroffels/-----------------|
D ------------drumfills-------------------|
A ----------------------------------------|
E ->0-R-----------------------------------|

SOLO

bas in B/bass in B:

E --------7-7------7-7------7-7------7-7------7-7--R-|
B --------7-7------7-7------7-7------7-7------7-7--R-|
G -*-9b11-----9b11-----9b11-----9b11-----9b11--------|
D -*-------------------------------------------------|
A ---------------------------------------------------|
E ---------------------------------------------------|

E ------7-7------7-7------7-7------7-7---------------|
B ------7-7------7-7------7-7------7-7------7--------|
G -9b11-----9b11-----9b11-----9b11-----9b11---9--R-*-|
D -------------------------------------------------*-|
A ---------------------------------------------------|
E ---------------------------------------------------|

bas in D/bass in D:

E ---------10-10-------10-10-------10-10-------10-10------------|
B ---------10-10-------10-10-------10-10-------10-10-------10---|
G -*-12b14-------12b14-------12b14-------12b14-------12b13----*-|
D -*----------------------------------------------------------*-|
A --------------------------------------------------------------|
E --------------------------------------------------------------|

bas in E/bass in E:

E ---------12-12-------12-12-------12-12-------12-12-----------|
B ---------12-12-------12-12-------12-12-------12-12-----------|
G -*-14b16-------14b16-------14b16-------14b16-------14b16-R-*-|
D -*---------------------------------------------------------*-|
A -------------------------------------------------------------|
E -------------------------------------------------------------|

bas in B/bass in B:

E -19-19-19-19-19-19-19-19-19-19-19-19-19-19-19-19-\-|
B ---------------------------------------------------|
G ---------------------------------------------------|
D ---------------------------------------------------|
A ---------------------------------------------------|
E ---------------------------------------------------|

opmerking: speel deze tonen 4 keer zeer snel; slide alleen na laatste keer/ 
note: play these tone 4 times very fast; slide only after last time
bas in D/bass in D:

E ---------10-10-------10-10-------10-10-------10-10-----------|
B ---------10-10-------10-10-------10-10-------10-10-10----\---|
G -*-12b14-------12b14-------12b14-------12b14-------12b13r\-*-|
D -*---------------------------------------------------------*-|
A -------------------------------------------------------------|
E -------------------------------------------------------------|

bas in A/bass in A:

rode tablature: gespeeld door bas/
red tabs: played by bass
E ------------------------------|
B ------------------------------|
G --->2------drumbreak----------|
D --->2-------------------------|
A -R->0-------------------------|
E ---------------------------5\-|

opmerking: vervolg met 4 keer riff A, 2 keer riff B en nog eens 2 keer riff A/ 
note: continue with 4 times riff A, 2 times riff B and yet more 2 times riff A
RIFF H/BREAK (bas in B/bass in B)

E ---------------------|------------------------|-----------------------|
B ---------9--R--------|----------(--10--7------|---------10b12-rp9~~---|
G ---------9b-R--------|----------(-x----7br~---|-----------------------|
D --------------9~~----|----------(0------------|-----------------------|
A ->9->9-R-------------|-/>9->9-R---------------|->9->9-R---------------|
E ->7->7-R-------------|-/>7->7-R---------------|->7->7-R---------------|

opmerking: vervolg met 2 keer riff D, waarna de bas (zonder gitaar) nog 1 keer
de tweede maat van riff D speelt/ 
note: continue with 4 times riff D, after which the bass (without guitar)
plays yet 1 time the second bar of riff D
EINDE SONG/END OF SONG

E -------------|
B -------------|
G ->5----------|
D ->3--2-R-----|
A ->3--2-R-----|
E -----0-R-----|


            
            
Suggest correction
Creating personal tab
Creating personal tab
You can edit any tab online and save it as your Personal.

You can edit, replace or remove any tab part or add personal notes – all changes will be seen only by you.

Personal tabs can be accessed anytime from any device, even offline.
Learn more »
Give kudos to tab author, rate the tab!
1 2 3 4 5
comments
print report bad tab
guest
You may want to rate the tab now too:
select rating
Wanna post a correction for this tab? Suggest correction