Oops, an error
Loading. Please wait.

Good News tab

by Petra
34 views 1 this week
no commentswrite comment
1 2 3 4 5
3 more votes to show rating
add to favorites
×
Save as Personal and add changes to this tab that will be seen only by you. Learn more ›
×
You can save this tab as Personal to edit and correct it or add notes. All changes will be seen only by you. Learn more »
launch autoscroll
font size
0
reset
how to read this tab
guitar tuner
edit
Autoscroll
slow
fast
+/-
esc
set tempo
stop
Artist: Petra 
Album: Wake-up-Call
Song: Good News
by: Bob Hartman 
year: 1993
Tempo: 128,3 BPM
tab: Christoph Mertinat (crushtoph >at< gmx.de)

[Intro]
M1 Am  C   G A       C   G D     C     A   C   G  A B    D   G 
e|-----------------|-----------------|-----------------|-------------------|
B|-----------------|-----------------|-----------------|-------------------|
G|-----------------|-5-5---7---------|-----------------|-7-7---------------|
D|-2---------2-----|-5-5-5-7-----5---|-2---------------|-7-7-5-5-5---------|
A|-0---3p0---0-----|-----5-------3---|-0---3b----0-2---|-----5-5-5---------|
E|---------3-------|-----------------|---------3-------|---------3---------|
   1 + 2 + 3 + 4 + | 1 + 2 + 3 + 4 + | 1 + 2 + 3 + 4 + | 1 + 2 + 3 + 4 +  

M5 Am  C   G Am      C   G D           Am      G   H     D   G
e|-----------------|-----------------|-----------------|-------------------|
B|-----------------|-----------------|-----------------|-------------------|
G|-----------------|-5-5---7-----7-7-|-----------------|-7-7---------------|
D|-2-2-------2-----|-5-5-5-7-----7-7-|-2-2-------------|-7-7-5-5-5---------|
A|-0-0-3p0---0-----|-----5-----------|-0-0-3b----0-2---|-----5-5-5---------|
E|---------3-------|-----------------|---------3-------|---------3---------|
   1 + 2 + 3 + 4 + | 1 + 2 + 3 + 4 + | 1 + 2 + 3 + 4 + | 1 + 2 + 3 + 4 +

[Verse 1]
M9                             D   A                                     
e|-----------------|-----------------|-----------------|-------------------|
B|-----------------|-----------------|-----------------|-------------------|
G|-----------------|-----------------|-----------------|-------------------|
D|-----------------|-----------7-7---|-----------------|-------------------|
A|-----------------|-----------5-5-7-|-7---------------|-------------------|
E|-----------------|---------------5-|-5---------------|-------------------|
   1 + 2 + 3 + 4 + | 1 + 2 + 3 + 4 + | 1 + 2 + 3 + 4 + | 1 + 2 + 3 + 4 + 
  Its just the same thing every day     Its only bad news coming my way 

M13 Am               C   G D       G
e|-----------------|-----------------|
B|-----------------|-----------------|
G|-----------------|-5-5---7---7-7---|
D|-2-2-------2-----|-5-5-5-7---7-7-5-|
A|-0-0-3p0---0-----|-----5---------5-|
E|---------3-------|-----------------|
   1 + 2 + 3 + 4 + | 1 + 2 + 3 + 4 + |
M15                            D   A                               D
e|-----------------|-----------------|-----------------|-------------------|
B|-----------------|-----------------|-----------------|-------------------|
G|-----------------|-----------------|-----------------|-------------------|
D|-----------------|-----------7-----|-----------------|-----------7-7-7---|
A|-----------------|-----------5---7-|-----------------|-----------5-5-5---|
E|-----------------|---------------5-|-----------------|-------------------|
   1 + 2 + 3 + 4 + | 1 + 2 + 3 + 4 + | 1 + 2 + 3 + 4 + | 1 + 2 + 3 + 4 + 
“Another war” thats a film at eleven, another crime from the heart of man

M19 C                        C D       C                        
e|-----------------|-----------------|-----------------|-----------------|
B|-----------------|-----------------|-----------------|-----------------|
G|-----------------|-----------------|-----------------|-----------------|
D|-5-------5---5---|-5-------5/7-7---|-5-------5---5---|-5---------0-0-0-|
A|-3-3-3-3-3-3-3-3-|-3-3-3-3-3/5-5-0-|-3-3-3-3-3-3-3-3-|-3-3-3-3---------|
E|-----------------|-----------------|-----------------|-----------------|
   1 + 2 + 3 + 4 + | 1 + 2 + 3 + 4 + | 1 + 2 + 3 + 4 + | 1 + 2 + 3 + 4 + | 
I can sit here with my lock on the door  
                                      Change the channel as I try to ignore

M23 D                          G   D   D                             C                                     
e|-----------------|-----------7-8---|-----------------|-------------------|
B|-----------------|-----------8-8---|-----------------|-------------------|
G|-2---------2-----|-----2-----7-7-2-|-2---------2-----|-------2-2-2-------|
D|-0-0-3p0---0-----|-0-0-0-0-0-----0-|-0-0-3p0---0-----|-0-0-0-0-0-0-5-----|
A|---------3-------|-----------------|---------3-------|-------------3-----|
E|-----------------|-----------------|-----------------|-------------------|
   1 + 2 + 3 + 4 + | 1 + 2 + 3 + 4 + | 1 + 2 + 3 + 4 + | 1 + 2 + 3 + 4 + 
   or get ready with shoes on my feet   And start dancing to another beat

[Chorus]
M27 B       A B       A           D      B       A B       D       A
e|------------------|-----------------|------------------|-----------------|   
B|------------------|-----------------|------------------|-----------------|
G|--4---4---4-------|-------------2---|--4---4---4-------|-2---2-----------|
D|--4---4---4-------|-2---2---2-2-0-2-|--4---4---4-------|-0-0-0---2---2---|
A|--2-2-2-2-0h2-2-2-|-0-0-0---0-0---0-|--2-2-2-2-0h2-2-2-|-------3-0-0-0---|
E|------------------|-------3---------|------------------|-----------------|
    1 + 2 + 3 + 4 + | 1 + 2 + 3 + 4 + |
Good news – you can read all about it | Good news – speak the word, never doubt it 

M31 B       A B       A                  D     A           G     D 
e|------------------|-----------------|------------------|-----------------|
B|------------------|-----------------|------------------|-----------------|
G|--4---4---4-------|-----------------|--2-2-------------|-----------------|
D|--4---4---4-------|-2---2---2-2-----|--0-0---2-----2---|-------7-----7---|
A|--2-2-2-2-0h2-2-2-|-0-0-0---0-0-0-0-|------0-0-0-0-0-0-|-5-----5-5-5-5-5-|
E|------------------|-------3---------|------------------|-3-3-3-----------|
    1 + 2 + 3 + 4 + | 1 + 2 + 3 + 4 + |  1 + 2 + 3 + 4 + | 1 + 2 + 3 + 4 + |
Good news cause we can´t live without it|I got good news on a long stanig offer.

M35 G     D           E 
e|------------------|-----------------|
B|------------------|-----------------|
G|------------------|-----------------|
D|--------7-7-------|-----------------|
A|--5-----5-5-------|-2-----2-----2---|
E|--3-3-3-----------|-0-0-0-0-0-0-0-0-|
    1 + 2 + 3 + 4 + | 1 + 2 + 3 + 4 + |
    Life you can never loose

[Solo 1]
[Guitar 1]
M37 Am                D   G             Am                D   C  G 
e|------------------|-----------------|-----------------|-----------------|
B|------------------|-----------------|-----------------|-----------------|
G|------------------|-7-7-------------|-----------------|-7-7-5-----------|
D|------------------|-7-7-5-5---5-5-5-|-----------------|-7-7-5-5-5-5-----|
A|-0-0-3-0---0------|-----5-5---5-5-5-|-0-0-3-0---0-----|-------5-5-5-----|
E|---------3--------|-----------------|---------3-------|-----------------|
   1 + 2 + 3 + 4 +  | 1 + 2 + 3 + 4 + | 1 + 2 + 3 + 4 + | 1 + 2 + 3 + 4 + |

M41 Am                D   G             Am                D   C G
e|------------------|-----------------|-----------------|-----------------|
B|------------------|-----------------|-----------------|-----------------|
G|------------------|-7-7-------------|-----------------|-7-7-5-----------|
D|------------------|-7-7-5-5---5-5-5-|-----------------|-7-7-5-5-5-------|
A|-0-0-3-0-------0--|-----5-5---5-5-5-|-0-0-3-0---0-----|-------5-5-------|
E|---------3-0-4----|-----------------|---------3-------|-----------------|
   1 + 2 + 3 + 4 +  | 1 + 2 + 3 + 4 + | 1 + 2 + 3 + 4 + | 1 + 2 + 3 + 4 + |

[Guitar 2]
M37 Am                     D         G
e|-----------------------|------------------------------------------------|
B|--12-12-12-12-12-12-12-|--^---------^-----------------^-v--^------------|
G|--14-14-14-14-14-14-14-|17b-14h17-19b---14---------17b19b17b------------|
D|-----------------------|------------------------------------------------|
A|-----------------------|------------------------------------------------|
E|-----------------------|------------------------------------------------|
   1 +  2  +  3  +  4 +  | 1 e +  e  2  e  +  e  3  e  +  e  4  e  +  e | 

M39 Am                               D       C       G
e|---------------------------------|^---v----------------------------|
B|---------------------------------17b-b17--15-----------------------|
G|19b-----17b-----14b--------------|------------17-------------------|
D|---------------------------------|----------------17---------------|
A|---------------------------------|---------------------------------|
E|---------------------------------|---------------------------------|
   1 e + e 2 e + e 3 e + e 4 e + e | 1 e + e 2 e + e 3 e + e 4 e + e | 

M41 Am                               D       G
e|15b------------------------------|---------------------------------|
B|----------------13--15-----------|----------------15--13-----------|
G|------------------------14-------|----14--12--14-------------------|
D|---------------------------------|---------------------------------|
A|---------------------------------|---------------------------------|
E|---------------------------------|---------------------------------|
   1 e + e 2 e + e 3 e + e 4 e + e | 1 e + e 2 e + e 3 e + e 4 e + e | 

M43 Am                                D         C   G
e|----------------------------------|---------------------------------|
B|----------------13----------------|---------------------------------|
G|14----------12--------------------|---------------------------------|
D|--------------------14-12---------|14b-12h14p12---------------------|
A|-------------------------15--12---|---------------------------------|
E|----------------------------------|--------------15-----------------|
   1 e + e 2 e + e 3 e +  e 4 e + e | 1 e +  e  2 e + e 3 e + e 4 e + e |

[Verse 2]
M45                            G       Am                          Am
e|-----------------|-----------------|-----------------|-------------------|
B|-----------------|-----------------|-----------------|-------------------|
G|-----------------|-----------------|-----------------|-------------------|
D|-----------------|-----------5-----|-7---------------|-------------------|
A|-----------------|-----------5-----|-7---------------|-----------7-7-7---|
E|-----------------|-----------------|-5---------------|-----------5-5-5---|
   1 + 2 + 3 + 4 + | 1 + 2 + 3 + 4 + | 1 + 2 + 3 + 4 + | 1 + 2 + 3 + 4 + 
Some people can´t see the light of day –They need somebody to show them the way 

M49 Am                 D   G   G
e|-----------------|-----------------|
B|-----------------|-----------------|
G|-----------------|---7-------------|
D|-----------------|---7---5---------|
A|-0-0-3-0-------0-|-------5---5-5-5-|
E|---------3-0-4---|-----------3-3-3-|
   1 + 2 + 3 + 4 + | 1 + 2 + 3 + 4 + |
M51 Am                         Am                                  D
e|-----------------|-----------------|-----------------|-------------------|
B|-----------------|-----------------|-----------------|-------------------|
G|-----------------|-----------------|-----------------|-------------------|
D|-2---------------|-----------2---2-|-----------------|-----------7-7-7---|
A|-0-0-------------|-----------0---0-|-----------------|-----------5-5-5---|
E|-----------------|-----------------|-----------------|-------------------|
   1 + 2 + 3 + 4 + | 1 + 2 + 3 + 4 + | 1 + 2 + 3 + 4 + | 1 + 2 + 3 + 4 + 
They climb the walls in fear of the future
                                         But god alone has the only cure
M55 C                         C D 
e|------------------|-----------------|
B|------------------|-----------------|
G|------------------|-----------------|
D|--5-----5-5---5---|-5-------5/7-7---|
A|--3-3-3-3-3-3-3-3-|-3-3-3-3-3/5-5-0-|
E|------------------|-----------------|
    1 + 2 + 3 + 4 + | 1 + 2 + 3 + 4 + |
 The world is spinning like its out of control

M57 C                 C        
e|------------------|-----------------|
B|------------------|-----------------|
G|------------------|-5---------5-----|
D|--5-----5-5---5---|-5---------5-----|
A|--3-3-3-3-3-3-3-3-|---3-3-3-3-------|
E|------------------|-----------------|
    1 + 2 + 3 + 4 + | 1 + 2 + 3 + 4 + | 
 There´s only one thing that can save their souls

M59 Dm                          G   Dm                    D           C                  
e|------------------|-----------8-8---|-----------------|-------------------|
B|------------------|-----------7-7---|-----------------|-------------------|
G|--2---------2-----|-----2-----8-8-2-|-2---------2-----|-------2-2-2-------|
D|--0-0-3p0---0-----|-0-0-0-0-0-----0-|-0-0-3p0---0-----|-0-0-0-0-0-0-5-----|
A|----------3-------|-----------------|---------3-------|-------------3-----|
E|------------------|-----------------|-----------------|-------------------|
    1 + 2 + 3 + 4 + | 1 + 2 + 3 + 4 + | 1 + 2 + 3 + 4 + | 1 + 2 + 3 + 4 + 
    I feel it, today is the day, so listen up, I got something to say

[Chorus]
M63 B       A B       A           D      B       A B       D       A
e|------------------|-----------------|------------------|-----------------|   
B|------------------|-----------------|------------------|-----------------|
G|--4---4---4-------|-------------2---|--4---4---4-------|-2---2-----------|
D|--4---4---4-------|-2---2---2-2-0-2-|--4---4---4-------|-0-0-0---2---2---|
A|--2-2-2-2-0h2-2-2-|-0-0-0---0-0---0-|--2-2-2-2-0h2-2-2-|-------3-0-0-0---|
E|------------------|-------3---------|------------------|-----------------|
    1 + 2 + 3 + 4 + | 1 + 2 + 3 + 4 + |
Good news – you can read all about it | Good news – speak the word, never doubt it 

M67 B       A B       A                  D     A           G     D 
e|------------------|-----------------|------------------|-----------------|
B|------------------|-----------------|------------------|-----------------|
G|--4---4---4-------|-----------------|--2-2-------------|-----------------|
D|--4---4---4-------|-2---2---2-2-----|--0-0---2-----2---|-------7-----7---|
A|--2-2-2-2-0h2-2-2-|-0-0-0---0-0-0-0-|------0-0-0-0-0-0-|-5-----5-5-5-5-5-|
E|------------------|-------3---------|------------------|-3-3-3-----------|
    1 + 2 + 3 + 4 + | 1 + 2 + 3 + 4 + |  1 + 2 + 3 + 4 + | 1 + 2 + 3 + 4 + |
Good news cause we can´t live without it|I got good news on a long stanig offer.

M71 G     D           E 
e|------------------|-----------------|
B|------------------|-----------------|
G|------------------|-----------------|
D|--------7-7-------|-----------------|
A|--5-----5-5-------|-2-----2-----2---|
E|--3-3-3-----------|-0-0-0-0-0-0-0-0-|
    1 + 2 + 3 + 4 + | 1 + 2 + 3 + 4 + |
    Life you can never loose

[Bridge]
M73 Am                C     G           Am                C    G
e|------------------|-----------------|-----------------|-----------------|
B|------------------|-----------------|-----------------|-----------------|
G|------------------|-5-5-------------|-----------------|-5-5-------5-4---|
D|------------------|-5-5---5---5-----|-----------------|-5-5-5-5-------5-|
A|---3b--0---0------|-----5-5---------|---0-3-0---0---0-|-----5-5-------5-|
E|---------3--------|-----------------|---------3-------|-----------------|
   1 + 2 + 3 + 4 +  | 1 + 2 + 3 + 4 + | 1 + 2 + 3 + 4 + | 1 + 2 + 3 + 4 + |
   All this bad news are getting me down, I got my head spinning around

M77 Am                D   G             Am                D     G
e|------------------|-----------------|-----------------|-----------------|
B|------------------|-----------------|-----------------|-----------------|
G|------------------|-7-7-------------|-----------------|-7-7-------------|
D|------------------|-7-7-5-5-------5-|-----------------|-7-7---5---------|
A|---0-3-0---0---0--|-----5-5-------5-|---0-3-0-3-0---0-|-----5-5---------|
E|---------3--------|-----------------|-------------3---|-----------------|
   1 + 2 + 3 + 4 +  | 1 + 2 + 3 + 4 + | 1 + 2 + 3 + 4 + | 1 + 2 + 3 + 4 + |
  Don´t have to take it, you know you can choose,
                                                  So listen up, I got some good news

[Solo 2]
M81 F# A  F# H A  F#   E                 A H    H  F#        E   
e|-------------------|-----------------|-------------------|-----------------|
B|-------------------|-----------------|-------------------|---7---7---------|
G|-------------------|---9v9v9v9-------|-------------------|-9b--9b----------|
D|----7-7---9-7------|-----------7-----|-7-9-9-9-7-------7-|-----------------|
A|--9-7-7-9-9-7---9--|-------------9---|-7-9-9-9---9p7h9---|-----------------|
E|--9-----9-------9--|-----------------|-------------------|-----------------|
    1 + 2 + 3 + 4 +  | 1 + 2 + 3 + 4 + | 1 + 2 + 3 + e 4 + | 1 + 2 + 3 + 4 + |

M85 E       F#     A    F#            H     A       
e|----------------------------------|-7-----7---------------------------|
B|----7-7---7------10p7-7--7b--10---|---10----10-7---7------------------|
G|-9b10---------9-------------------|---------------9-------------------|
D|----------------------------------|-----------------------------------|
A|----------------------------------|-----------------------------------|
E|----------------------------------|-----------------------------------|
   1  e + e 2 e + e 3 e + e 4 e + e | 1  o  e  2 o  e 3 e + e 4 e + e   |

M87 F#                E                    H             A
e|14b-12—12------------------------------|----------------17-----------------|
B|------14--14p12h14-14-13-12--12--------|----------------db16b16--14--------|
G|---------------------------14--14-13---|-----------------------------------|
D|------------------------------------14-|-----------------------------------|
A|---------------------------------------|-----------------------------------|
E|---------------------------------------|-----------------------------------|
   1 e + e 2 e  +  e  3  e  + e 4 e  + e | 1 e + e 2 e + e 3 e  + e 4 e  + e |

[Bridge 2]
M89  D    D  H   E...      
e|------------------|-----------------|-----------------|------------------|
B|------------------|-----------------|-----------------|------------------|
G|------------------|-----------------|-----------------|------------------|
D|------------[hold]|-----------------|-----------------|------------------|
A|---5-4-5-4-----2--|-----------------|-----------------|------------------|
E|-----------7-5-0--|-----------------|-----------------|------------------|
   1 + 2 + 3 + 4 +  | 1 + 2 + 3 + 4 + |1 + 2 + 3 + 4 +  | 1 + 2 + 3 + 4 +  |
                  The world needs to hear the good news of the love of God's Son
M93  D    D  H   E...
e|------------------|-----------------|-----------------|------------------|
B|------------------|-----------------|-----------------|------------------|
G|------------------|-----------------|-----------------|------------------|
D|------------[hold]|-----------------|-----------------|------------------|
A|---5-4-5-4---4-2--|-----------------|-----------------|-4-----7----------|
E|-----------7---0--|-----------------|-----------------|-2-----5----------|
   1 + 2 + 3 + 4 +  | 1 + 2 + 3 + 4 + |1 + 2 + 3 + 4 +  | 1 + 2 + 3 + 4 +  | 
                     Every life can be changed by the hearing of what He's done 

[Interlude]
M97  D  D      C# H   A  D  D    C# H   G             G                  G       
e|------------------|-----------------|------------------|------------------|
B|------------------|-----------------|------------------|------------------|
G|------------------|-----------------|------------------|------------------|
D|------------[hold]|-----------------|------------------|------------------|
A|---5---5-4-5-4----|----5--5-4-5-4---|-5-------------5--|---------------5--|
E|---------------7--|-5-------------7-|-3-------------3--|---------------3--|
   1 + 2 + 3 + 4 +  | 1 + 2 + 3 + 4 + | 1 + 2 + 3 + 4 +  | 1 + 2 + 3 + 4 +  |

M101 D                                 H                A
e|-14—15p14-----14--15--17--14--15---|-19--14-----------14h15p14-----------|
B|----------17-----------------------|----------17--15------------17--15---|
G|-----------------------------------|-------------------------------------|
D|-----------------------------------|-------------------------------------|
A|-----------------------------------|-------------------------------------|
E|-----------------------------------|-------------------------------------|
    1 e +  e 2 e + e 3 e + e 4 e + e |  1 e +  e 2 e + e 3  e  + e 4 e + e

[Chorus]
M63 B       A B       A           D      B       A B       D       A
e|------------------|-----------------|------------------|-----------------|   
B|------------------|-----------------|------------------|-----------------|
G|--4---4---4-------|-------------2---|--4---4---4-------|-2---2-----------|
D|--4---4---4-------|-2---2---2-2-0-2-|--4---4---4-------|-0-0-0---2---2---|
A|--2-2-2-2-0h2-2-2-|-0-0-0---0-0---0-|--2-2-2-2-0h2-2-2-|-------3-0-0-0---|
E|------------------|-------3---------|------------------|-----------------|
    1 + 2 + 3 + 4 + | 1 + 2 + 3 + 4 + |
Good news – you can read all about it | Good news – speak the word, never doubt it 

M67 B       A B       A                  D     A           G     D 
e|------------------|-----------------|------------------|-----------------|
B|------------------|-----------------|------------------|-----------------|
G|--4---4---4-------|-----------------|--2-2-------------|-----------------|
D|--4---4---4-------|-2---2---2-2-----|--0-0---2-----2---|-------7-----7---|
A|--2-2-2-2-0h2-2-2-|-0-0-0---0-0-0-0-|------0-0-0-0-0-0-|-5-----5-5-5-5-5-|
E|------------------|-------3---------|------------------|-3-3-3-----------|
    1 + 2 + 3 + 4 + | 1 + 2 + 3 + 4 + |  1 + 2 + 3 + 4 + | 1 + 2 + 3 + 4 + |
Good news cause we can´t live without it|I got good news on a long stanig offer.

M71 G     D           E 
e|------------------|-----------------|
B|------------------|-----------------|
G|------------------|-----------------|
D|--------7-7-------|-----------------|
A|--5-----5-5-------|-2-----2-----2---|
E|--3-3-3-----------|-0-0-0-0-0-0-0-0-|
    1 + 2 + 3 + 4 + | 1 + 2 + 3 + 4 + |
    Life you can never loose

[Harpsolo + Fadeout]
   B       A B       A           D     B       A B       D       A
e|-----------------|-----------------|-----------------|-----------------|
B|-----------------|-----------------|-----------------|-----------------|
G|-4---4---4-------|-------------2---|-4---4---4-------|-2---2-----------|
D|-4---4---4-------|-2---2---2-2-0-2-|-4---4---4-------|-0-0-0---2---2---|
A|-2-2-2-2-0h2-2-2-|-0-0-0---0-0---0-|-2-2-2-2-0h2-2-2-|-------3-0-0-0---|
E|-----------------|-------3---------|-----------------|-----------------|
   1 + 2 + 3 + 4 + | 1 + 2 + 3 + 4 + | 1 + 2 + 3 + 4 + | 1 + 2 + 3 + 4 + |


************************************

| p  Pull-off
| b  Bend
| /  Slide up
| h  Hammer-on

************************************

            
            
Suggest correction
Creating personal tab
Creating personal tab
You can edit any tab online and save it as your Personal.

You can edit, replace or remove any tab part or add personal notes – all changes will be seen only by you.

Personal tabs can be accessed anytime from any device, even offline.
Learn more »
Give kudos to tab author, rate the tab!
1 2 3 4 5
comments
print report bad tab
guest
You may want to rate the tab now too:
select rating
Wanna post a correction for this tab? Suggest correction