Oops, an error
Loading. Please wait.

My Love bass

97 views 1 this week
no commentswrite comment
1 2 3 4 5
3 more votes to show rating
add to favorites
×
Save as Personal and add changes to this tab that will be seen only by you. Learn more ›
×
You can save this tab as Personal to edit and correct it or add notes. All changes will be seen only by you. Learn more »
launch autoscroll
font size
0
reset
guitar tuner
edit
Autoscroll
slow
fast
+/-
esc
set tempo
stop
Author
My Love
Written by Tony Hatch, this single release by Petula Clark reached 
Number 4 in UK charts early 1966.  Tab by bass50611.  A great Sixties
Song.  Bass tab as per (or nearly) as original. 
Comments bass254@btinternet.com 

Intro:
G|--------------------------------------------|
D|-7--7-7-------------------7-----7-----------|
A|---------5--5-5---7--7-7-----7-7----0--2--4-|
E|--------------------------------------------|

Chorus:
G|------------------------------------------------------------------------|
D|-------------2---------4--4--------------------------7---7----7---------|
A|-5---4---2-------4--4---------2---0---------------7-------7-7---0--2--4-|
E|--------------------------------------3---0---5-------------------------|

G|------------------------------------------------|
D|-------------2--------4--4----------------------|
A|-5---4---2------4--4-------2---0--------------7-|
E|----------------------------------3---0---5-----|

Instrumental:
G|----------------------------------|
D|-7--7-7---------------------------|
A|---------5--5-5---7--7-7---7--7-7-|
E|----------------------------------|

Verse 1:
G|----------------------------------------------------------------------|
D|----------------------------------------------------------------------|
A|---------5--5-5---7--7-7---------7----------5--5----7--7---7--5--4----|
E|-5--5-5-------------------5--5-5-----5--5-5-----5-------7-----------7-|

G|----------------------------------------------------------------------|
D|-------------------------------------------------7---7-----7----------|
A|---------5--5-5---7--5--4-------2--2-2---7--7-7--------7-7----0--2--4-|
E|-5--5-5-------------------7--2----------------------------------------|

Chorus:
G|------------------------------------------------------------------------|
D|-------------2---------4--4--------------------------7---7----7---------|
A|-5---4---2-------4--4---------2---0--------------7--------7-7---0--2--4-|
E|--------------------------------------3---0---5-------------------------|

G|------------------------------------------------|
D|-------------2--------4--4----------------------|
A|-5---4---2------4--4-------2---0--------------7-|
E|----------------------------------3---0---5-----|

Instrumental:                (Key Change)
G|----------------------------------|
D|-7--7-7---------------------------|
A|---------5--5-5---7--7-7---8--8-8-|
E|----------------------------------|

Verse 2:
G|---------------------------------------------------------------------|
D|---------------------------------------------------------------------|
A|---------6--6-6---8--8-8---------8----------6--6----8--8---8--6--5---|
E|-6--6-6-------------------6--6-6----6--6-6------6-------8----------8-|

G|---------------------------------------------------------------------|
D|-------------------------------------------------8---8-----8---------|
A|---------6--6-6---8--6--5--3----3--3-3---8--8-8--------8-8---------5-|
E|-6--6-6----------------------3--------------------------------6--8---|

Chorus 2:                                               (Play This Bit x3)
G|-----------------------------------------------------------------------|
D|-------------3---------5--5---------------------3---8---8----8---------|
A|-6---5---3-------5--5---------3---1----------1------------8-8--------5-|
E|-------------------------------------4---1----------------------6--8---|

Outro:
G|----------------------------------------------------------|
D|-------------3--------5--5--------------------------------|
A|-6---5---3------5--5--------3---1------------------8--8-8-|
E|-----------------------------------4---1---6--6-6---------|

                           (End Bass Chord)
G|-----------------------------|
D|-8--8-8--------------------8-|
A|---------6--6-6---8--8-8-----|
E|---------------------------6-|



My love is warmer than the warmest sunshine
Softer than a sigh.
My love is deeper than the deepest ocean
Wider than the sky.
My love is brighter than the brightest star
That shines every night above
And there is nothing in this world
That can ever change my love

Something happended to my heart the day that I met you
Something that I never felt before
You are always on my mind no matter what I do
And everyday it seems that I want you more

My love is warmer than the warmest sunshine
Softer than a sigh.
My love is deeper than the deepest ocean
Wider than the sky.
My love is brighter than the brightest star
That shines every night above
And there is nothing in this world
That can ever change my love
Once I thought that love was meant for anyone else but me
Once I thought you'd never come my way
Now it only goes to show how wrong we all can be
For now I have to tell you everyday

My love is warmer than the warmest sunshine
Softer than a sigh
My love is deeper than the deepest ocean
Wider than the sky
My love is brighter than the brightest star
That shines every night above
And there is nothing in this world
That can ever change my love
My love is warmer than the warmest sunshine
Softer than a sigh
My love is deeper than the deepest ocean
Wider than the sky
My love is brighter than the brightest star
That shines every night above
And there is nothing in this world
That can ever change my love

            
            
Suggest correction
Creating personal tab
Creating personal tab
You can edit any tab online and save it as your Personal.

You can edit, replace or remove any tab part or add personal notes – all changes will be seen only by you.

Personal tabs can be accessed anytime from any device, even offline.
Learn more »
Give kudos to tab author, rate the tab!
1 2 3 4 5
comments
print report bad tab
guest
You may want to rate the tab now too:
select rating
Wanna post a correction for this tab? Suggest correction