Oops, an error
Loading. Please wait.

Cabeza De Departamento tab

by Pez
114 views 1 this week
no commentswrite comment
1 2 3 4 5
3 more votes to show rating
add to favorites
×
Save as Personal and add changes to this tab that will be seen only by you. Learn more ›
×
You can save this tab as Personal to edit and correct it or add notes. All changes will be seen only by you. Learn more »
launch autoscroll
font size
0
reset
how to read this tab
guitar tuner
edit
Autoscroll
slow
fast
+/-
esc
set tempo
stop
e-------------------------------------------- ||
B-------------5------------------------------ ||
G---------------7---5-5-5-5-5----5-5-5-5----- X2
D---------5-7-----------------8----------8-5- ||
A-7-7-7-7------------------------------------ ||
E-------------------------------------------- ||

e-------------------------------||--------------------------
B-------------5-5^^-------------||--------------------------
G-------------------5-5-5-5-----X2-5-5-5-5-5----5-5-5-5-----
D---------5-7---------------8-5-||-----------8----------8-5-
A-7-7-7-7-----------------------||--------------------------
E-------------------------------||--------------------------


e-------------------------------------------------------------------------
B--------------------3----------------------------------------------------
G------------------2------------------------------------------------------
D----------------1----------------------------5-----------5-5-7-----------
A-----------3--2-------5-6-7-----5--5-----5-7---7-5----3--3-3-5--7--5-7-5-
E--0--3--5--------------------0---------7-----------7------------5--3-5-3-
                             _ _ _ _ _ _ _ _ _ _ _ _ _ _ _ _ _ _ _ _ _ _/
                                                  x 2

e----------------------------------------------------
B----------------------------------------------------
G----------------------------------------------------
D-----5-7-5---5-7b8--7-5-----5---5-5-7---------------
A-5/7-------7------------7-5-3---3-3-5---7---5-7-5---
E----------------------------------------5---3-5-3---


e--------------------------------------------
B--------------------------------------------
G--------------------------------------------
D--------------------------------------------
A--4-4-4-4-4-4-4-4--4-4-4-4-4---4-4-4-4-4-4--
E--2-2-2-2-2-2-2-2--2-2-2-2-2---2-2-2-2-2-2--
   _ _ _ _ _ _ _ _ _ _ _ _ _ _ _ _ _ _ _ _ _  muteadas


e------------------------------------------------------------
B------------------------------------------------------------
G------------------------------------------------------------
D--2---------------------------------5---5-5-7---------------
A--2---------------------------------3---3-3-5---7---5-7-5---
E--0---------------------------------------------5---3-5-3---

      ¡Soy porteño! Cabeza de departamento


e----------------------------------------------------------
B----------------------------------------------------------
G----------------------------------------------------------
D----------2---0-----------2---0---5---5-5-7---------------
A--2-2-2-2-2---0---2-2-2-2-2---0---3---3-3-5---7---7-5-7---
E--0-0-0-0---------0-0-0-0---------------------5---5-3-5---
     m  /           m  /

       No tengo...      ...tiempo


e------------------------------------------------------------
B------------------------------------------------------------
G------------------------------------------------------------
D--2---------------------------------5---5-5-7---------------
A--2---------------------------------3---3-3-5---7---5-7-5---
E--0---------------------------------------------5---3-5-3---

       Envejeciendo, trabajando en el microcentro


e----------------------------------------------------------
B----------------------------------------------------------
G----------------------------------------------------------
D----------2---0-----------2---0---5---5-5-7---------------
A--2-2-2-2-2---0---2-2-2-2-2---0---3---3-3-5---7---7-5-7---
E--0-0-0-0---------0-0-0-0---------------------5---5-3-5---
     m  /           m  /

       Donde arriba...  ...cemento


e----------------------------------------------------------------------
B----------------------------------------------------------------------
G----------------------------------------------------------------------
D--------------------------------------------------------------5-------
A--4-4-4-4-4-4-4-4--4-4-4-4-4---4-4-4-4-4-4------5---5-----5-7---7-5---
E--2-2-2-2-2-2-2-2--2-2-2-2-2---2-2-2-2-2-2--0-----------7-----------7-
  _ _ _ _ _ _ _ _ _ _ m _ _ _ _ _ _ _ _ _ /


Amaj7
     Y esta verdad
B5 C5
     es tan mortal
       F       E
     como este aire
                    Amaj7
     que sufro y respiro
     yo recibo tanto odio...


e------------------------------------------
B------------------------------------------
G--7-7-7-7--7-7-7-7--7-7-7-7--7-7----------
D--7-7-7-7--7-7-7-7--7-7-7-7--7-7----------
A--5-5-5-5--5-5-5-5--5-5-5-5--5-5--5-6-7---
E------------------------------------------
  _ _ _ _ _ _ _ m _ _ _ _ _ _ _/

   ...hoy

e-----------------------------------------------------
B-----------------------------------------------------
G-----------------------------------------------------
D-------------------5---------5---5-5-7---------------
A-----5---5-----5-7---7-5-----3---3-3-5---7---5-7-5---
E--0----------7-----------7---------------5---3-5-3---


e------------------------------------------------
B------------------------------------------------
G----------------------------------------7---7-9-
D--------------5-7-7/9--7/5----5-7/9---9---9-----
A----------5-7---------------7-------------------
E--0---5-7---------------------------------------

e-----------------------------------------------------------------
B--7h8r7----------------------------------------------------------
G--------9-7---7--7b9-7-------------------------------------------
D------------9-----------9-8-7-5-----7-5--5---5-5-7---------------
A--------------------------------7-5------3---3-3-5---7---5-7-5---
E-----------------------------------------------------5---3-5-3---


e---------------------------------------------------------------
B---------------------------------------------------------------
G---------------------------------------------------------------
D--4-4-4-4-4-4-4-4-4-4-4-4-4---4-4-4-4-4-4-4-4-4-4-4-4-4-4-4-4--
A--4-4-4-4-4-4-4-4-4-4-4-4-4---4-4-4-4-4-4-4-4-4-4-4-4-4-4-4-4--
E--2-2-2-2-2-2-2-2-2-2-2-2-2---2-2-2-2-2-2-2-2-2-2-2-2-2-2-2-2--
  _ _ _ _ _ _ _ _ _ _ _ _ _  m  _ _ _ _ _ _ _ _ _ _ _ _ _ _ _ /


e------------------------------------------------------------
B------------------------------------------------------------
G------------------------------------------------------------
D--2---------------------------------5---5-5-7---------------
A--2---------------------------------3---3-3-5---7---5-7-5---
E--0---------------------------------------------5---3-5-3---

      Los autos, esos seres abominables


e----------------------------------------------------------
B----------------------------------------------------------
G----------------------------------------------------------
D----------2---0-----------2---0---5---5-5-7---------------
A--2-2-2-2-2---0---2-2-2-2-2---0---3---3-3-5---7---7-5-7---
E--0-0-0-0---------0-0-0-0---------------------5---5-3-5---
     m  /           m  /

       Día A día...      ...sangre


e------------------------------------------------------------
B------------------------------------------------------------
G------------------------------------------------------------
D--2---------------------------------5---5-5-7---------------
A--2---------------------------------3---3-3-5---7---5-7-5---
E--0---------------------------------------------5---3-5-3---

       Y a fin de cuentas estamos...


e----------------------------------------------------------
B----------------------------------------------------------
G----------------------------------------------------------
D----------2---0-----------2---0---5---5-5-7---------------
A--2-2-2-2-2---0---2-2-2-2-2---0---3---3-3-5---7---7-5-7---
E--0-0-0-0---------0-0-0-0---------------------5---5-3-5---
     m  /           m  /

       De este puto...  ...progreso


e----------------------------
B----------------------------
G----------------------------
D--------------------5-------
A------5---5-----5-7---7-5---
E--0-----------7-----------7-


Amaj7
     Tanta ciudad
B5 C5
     me va a matar
       F      E
     y yo estaré acá
                    Amaj7
     esperando en Boedo
     Caballito o Boedo
     no lo...


e------------------------------------------
B------------------------------------------
G--7-7-7-7--7-7-7-7--7-7-7-7--7-7----------
D--7-7-7-7--7-7-7-7--7-7-7-7--7-7----------
A--5-5-5-5--5-5-5-5--5-5-5-5--5-5--5-6-7---
E------------------------------------------
  _ _ _ _ _ _ _ m _ _ _ _ _ _ _/

   ...sé


e--------------------------------------------- ||
B--------------5------------------------------ ||
G----------------7---5-5-5-5-5----5-5-5-5----- X2
D----------5-7-----------------8----------8-5- ||
A--7-7-7-7------------------------------------ ||
E--------------------------------------------- ||


e--------------------------------- || --------------------------
B---------------5-5^^------------- || --------------------------
G---------------------5-5-5-5----- X2 -5-5-5-5-5----5-5-5-5-----
D-----------5-7---------------8-5- || -----------8----------8-5-
A---7-7-7-7----------------------- || --------------------------
E--------------------------------- || --------------------------


e----------------
B----------------
G----------------
D----------------
A------------3---
E---0--3--5------


e--------9/12/15-----17-----19-----19b21---------- ||
B--10------------14-----15-----17----------------- ||
G-----9------------------------------------------- ||
D------------------------------------------5--5--- ||
A------------------------------------------5--5--- ||
E------------------------------------------3--3--- ||


¡Soy porteño! Cabeza de departamento
no tengo espacio no tengo tiempo
envejeciendo trabajando en el microcentro
donde arriba sólo hay cables y abajo cemento.

Y ésta verdad es tan mortal
como este aire que sufro y respiro
yo recibo tanto odio hoy.

Los autos, esos seres abominables,
día a día van regando nuestras calles de sangre
y al fin de cuentas estamos pagando alto el precio
de este puto sacrificio al dios del progreso.

Y esta ciudad me va a matar y yo estaré acá
esperando en Boedo... Caballito o Boedo... no lo sé.

            
            
Suggest correction
Creating personal tab
Creating personal tab
You can edit any tab online and save it as your Personal.

You can edit, replace or remove any tab part or add personal notes – all changes will be seen only by you.

Personal tabs can be accessed anytime from any device, even offline.
Learn more »
Give kudos to tab author, rate the tab!
1 2 3 4 5
comments
print report bad tab
guest
Wanna post a correction for this tab? Suggest correction