Oops, an error
Loading. Please wait.

El Cuerpo Es Un Momento tab

by Pez
35 views 1 this week
no commentswrite comment
1 2 3 4 5
3 more votes to show rating
add to favorites
×
Save as Personal and add changes to this tab that will be seen only by you. Learn more ›
×
You can save this tab as Personal to edit and correct it or add notes. All changes will be seen only by you. Learn more »
launch autoscroll
font size
0
reset
how to read this tab
guitar tuner
edit
Autoscroll
slow
fast
+/-
esc
set tempo
stop
INTRO: pre-riff -RIFF 1 X3-
(B5-D5/E5/D5-G5/F#5/G5/F#5/G5-G#5-A5-D5)X2


B5                B5-C5-C#5
  Dame tres horas
D5                   G            Bb7
  Dame razón y dame pizza fría de otro día


B5                B5-C5-C#5
   Dame vergüenza
D5                      G                Bb7
   Dame razón, dame una (aca no se que dice pero las notas siguen igual)


         Bb5               D5
(RIFF 2)    Te pido sí o sí
         Bb5                         D5
(RIFF 2)    Que no hables más de amor
         Bb5                           D5
(RIFF 2)    Ni hablar de hablar de dios


B5                       B5-C5-C#5
   Autos y gente hormiga
D5                     G                   Bb7
   Es lo que veo desde aca y nada más que eso importa


B5                 B5-C5-C#5
   Porque si espero
D5                          G                 Bb7
   Algo mejor me va a encontrar la muerte con esta sonrisa idiota


        Bb5            D5
(RIFF 2)   Te pido sí o sí
        Bb5                        D5
(RIFF 2)   Que no hables más de vos
        Bb5                        D5
(RIFF 2)    Yo siempre hablo de mí


E5           C5
  Y acá me ves
             A5
  En mi pedestal
                F5
  De pus y grasa


E5
    El cuerpo es un momento
C5
    El cuerpo es un momento
A5                         F5
    El cuerpo es un momento


RIFF X 1 - pre-riff

FINALE


RIFF 1:

-------------=-------------------------------------------------------------
---------3---=---------3--------------------------3---------------------0--
-------------=------------------5---4--3--------------------5---4--3--2----
-------------=------------0-3-4--4---3--2-------------0-3-4--4---3--2------
--0L2--2-----=--0L2-2-----------------------0L2-2--------------------------
-------------=-------------------------------------------------------------
pre-riff


RIFF 2 :

------------------------------------------------
------------------------TODO LIGADO-------------
---4-----------------2--3--2--0--2--3--2--0-----
---4---PALM MUTE-----2--3--2--0--2--3--2--0-----
---2--------0--2--------------------------------
-------0--2-------------------------------------


FINALE :
                                       X2
----------------------------------------=
----------------------------------------=
----------------------------------------=
---------------------------4-2----------=
--------3-2-0---0-2------------4-3-2--0-=
-2-2--0-------2-----2-2--0--------------=


-----------------------------------------------------------------------
-----------------------------------------------------------------------
-----------------------------------------------------------------------
----------------------------------------------------------10-8---------
--------9-8-6---6-------9-9-9-9-8-6--------9-8-6---6-----------10-9-8-6
-8-8--6-------8---8-8-6-------------8-8--6-------8---8-8-6-------------


-------------------------------------------------------------------------
-------------------------------------------------------------------------
-------------------------------------------------------------------------
----------------------------13-11----------------------------------------
-------12-11-9---9-11-------------13-12-11-9--------12-11-9---9-11-------
11-11-9-------11-----11-11-9-----------------11-11-9--------11----11-11-9


--------------------
--------------------
--------------------
-13-11--------------
-------13-12-11-10--
--------------------


--------------------------------------------------------------------------
--------------------------------------------------------------------------
-------------------------------------------------------------11-9---------
-------10-9-7---7-------10-10-10-10-9-7-------10-9-7--7----------11-10-9-7
9-9--7--------9---9-9--7----------------9-9--7-------9--9-9-7-------------
--------------------------------------------------------------------------


                                       X2
----------------------------------------=---------------------
----------------------------------------=---------------------
----------------------------------------=---------------------
---------------------------4-2----------=---------------------
--------3-2-0---0-2------------4-3-2--0-=----------6-5-3---3--
-2-2--0-------2-----2-2--0--------------=---5-5--3-------5----


O algo parecido...

            
            
Suggest correction
Creating personal tab
Creating personal tab
You can edit any tab online and save it as your Personal.

You can edit, replace or remove any tab part or add personal notes – all changes will be seen only by you.

Personal tabs can be accessed anytime from any device, even offline.
Learn more »
Give kudos to tab author, rate the tab!
1 2 3 4 5
comments
print report bad tab
guest
Wanna post a correction for this tab? Suggest correction