Oops, an error
Loading. Please wait.

La Gota tab

by Pez
74 views 1 this week
no commentswrite comment
1 2 3 4 5
3 more votes to show rating
add to favorites
×
Save as Personal and add changes to this tab that will be seen only by you. Learn more ›
×
You can save this tab as Personal to edit and correct it or add notes. All changes will be seen only by you. Learn more »
launch autoscroll
font size
0
reset
how to read this tab
guitar tuner
edit
Autoscroll
slow
fast
+/-
esc
set tempo
stop
Riff en E:

|------------------------|
|------------------------|
|------------------------|
|------------------------|
|-------------------5-7--|
|-0-0-3-0-0-5-3-6-7------|

|--------------------------|
|--------------------------|
|--------------------------|
|--------------------------|
|--------------------------|
|-0-0-3-0-0-5-3-7-6-5-3-2-0|


E
Hubo un tiempo en que creía en lo que decía

(riff en E)
E

y creía que era libre de verdad


(Riff en A)
|--------------------------
|--------------------------
|--------------------------
|-2-2-2-2-2-3-3-2-2-2-2-2--
|-0-0-3-0-3-4-5-0-0-3-0-0--
|--------------------------


(riff en A)
pero el tiempo fue gastando las palabras
                        (riff en E)
y ahora no me creo nada más.

(riff en E)

Era joven, encendidos brillaban mis ojos.
Era joven, dije, la pasión siempre garpaba más,
no había norte, se extendía amplio el horizonte.
ir hacia cualquier lugar Ir hacia algún lugar, .

|------------------------------------|
|------------------------------------|
|-3-3-3-3-------3-3-3-3--------------|
|-2-2-2-2-------2-2-2-2----------6---|
|-4-4-4-4---6---4-4-4-4---6----7---7-|
|-2-2-2-2-5---5-2-2-2-2-5---5--------|


 F#7                                  A-5
Dínamo, fluye en mí espíritu inquieto,
no me deja abandonar.
Si esta canción es una gota de agua
                             D-5/C#-5 C-5/B-5
pues de gotas se hace el mar.

(Solo sobre)

|---------------|
|---------------|
|---------------|x8
|---------------|
|-2-2-2-2-2-2-2-|
|-0-0-0-0-3-3-3-|

|--------------------------|
|--------------------------|
|-------------------------3|
|-2-2-2-2-2-3-3-2-2-2-2-2-3|
|-0-0-3-0-3-4-5-0-0-3-0-0-1|
|--------------------------|

Puente

|------------------------------|
|---5-3------------------------|
|-4-----4----0-2-2-0-2-4-0-2-4-|
|-2-------2------2-------------|
|----------------0-------------|
|-0----------------------------|


|---------------------------------------|
|---5-3------------------------------3-3|
|-4-----4----0-2-2-0-2-4-0-2-------2-3-3|
|-2-------2------2-----------4-2-4-2-3-3|
|----------------0-----------4-----0-1-1|
|-0--------------------------2----------|

Acordes:
E:022100
A:002220
F#7:242322
A-5: 567xxx
D-5: x567xx
C#-5:x456xx
c-5:x345xx
B-5:x234xx

Un abrazo y suerte para tod@s!
Zr. Zorrino

            
            
Suggest correction
Creating personal tab
Creating personal tab
You can edit any tab online and save it as your Personal.

You can edit, replace or remove any tab part or add personal notes – all changes will be seen only by you.

Personal tabs can be accessed anytime from any device, even offline.
Learn more »
Give kudos to tab author, rate the tab!
1 2 3 4 5
comments
print report bad tab
guest
Wanna post a correction for this tab? Suggest correction