Oops, an error
Loading. Please wait.

Malestar tab

by Pez
42 views 1 this week
no commentswrite comment
1 2 3 4 5
3 more votes to show rating
add to favorites
×
Save as Personal and add changes to this tab that will be seen only by you. Learn more ›
×
You can save this tab as Personal to edit and correct it or add notes. All changes will be seen only by you. Learn more »
launch autoscroll
font size
0
reset
how to read this tab
guitar tuner
edit
Autoscroll
slow
fast
+/-
esc
set tempo
stop
 |       |       |       |        |       |       |       |
|--------------------------------|--------------------------------|
|--------------------------------|--------------------------------|
|--------------------------------|--------------------------------|
|--------------------------------|--------------------------------|
|--------------------------------|0-------4-------------------0---|
|--------------------0---2---3---|----------------0---2---3-------|

 |       |       |       |        |       |       |       |
|--------------------------------|--------------------------------|
|--------------------------------|--------------------------------|
|--------------------------------|--------------------------------|
|------------5-------------------|--------------------------------|
|----4---------------------------|0-------4-------------------0---|
|--------------------0---2---3---|----------------0---2---3-------|

 |       |       |       |        |       |       |       |
|--------------------------------|--------------------------------|
|--------------------------------|--------------------------------|
|--------------------5-----------|----------------5---------------|
|------------5-----------4---5---|3-------2-----------4---5---3---|
|----4---------------------------|--------------------------------|
|--------------------------------|--------------------------------|

 |       |       |       |        |       |       |       |
|--------------------------------|--------------------------------|
|--------------------------------|--------------------------------|
|------------5-------------------|--------5-----------------------|
|----2-----------4---5---3-------|2-----------4---5---3-------2---|
|--------------------------------|--------------------------------|
|--------------------------------|--------------------------------|

 |       |       |       |        |       |       |       |
|--------------------------------|--------------------------------|
|--------------------------------|--------------------------------|
|--------------------------------|--------------------------------|
|--------------------------------|----------------------------5---|
|----------------0-------4-------|------------0-------4-----------|
|----0---2---3-------------------|0---2---3-----------------------|

 |       |       |       |        |       |       |       |
|--------------------------------|--------------------------------|
|--------------------------------|--------------------------------|
|--------------------------------|--------------------------------|
|--------------------------------|----------------------------5---|
|----------------0-------4-------|------------0-------4-----------|
|----0---2---3-------------------|0---2---3-----------------------|

 |       |       |       |        |       |       |       |
|--------------------------------|--------------------------------|
|--------------------------------|--------------------------------|
|----5---------------------------|5---------------------------5---|
|--------4---5---3-------2-------|----4---5---3-------2-----------|
|--------------------------------|--------------------------------|
|--------------------------------|--------------------------------|

 |       |       |       |        |       |       |       |
|--------------------------------|--------------------------------|
|--------------------------------|--------------------------------|
|------------------------5-------|--------------------5-----------|
|4---5---3-------2-----------4---|5---3-------2-----------4---5---|
|--------------------------------|--------------------------------|
|--------------------------------|--------------------------------|

 |       |       |       |        |       |       |       |
|--------------------------------|--------------------------------|
|--------------------------------|--------------------------------|
|--------------------------------|--------------------------------|
|7---7---7---7---7---7---7---7---|7---7---7---7---7---7---7---7---|
|7---7---7---7---7---7---7---7---|7---7---7---7---7---7---7---7---|
|5---5---5---5---5---5---5---5---|5---5---5---5---5---5---5---5---|
 X   X   X   X   X   X   X   X    X   X   X   X   X   X   X   X

                 Se      des------per-----to      sin     sa---


 |       |       |       |        |       |       |       |
|--------------------------------|--------------------------------|
|--------------------------------|--------------------------------|
|--------------------------------|--------------------------------|
|4---4---4---4---4---4---4---4---|4---4---4---4---4---4---4---4---|
|4---4---4---4---4---4---4---4---|4---4---4---4---4---4---4---4---|
|2---2---2---2---2---2---2---2---|2---2---2---2---2---2---2---2---|
 X   X   X   X   X   X   X   X    X   X   X   X   X   X   X   X

-ber


 |       |       |       |        |       |       |       |
|--------------------------------|--------------------------------|
|--------------------------------|--------------------------------|
|3---3---3---3---3---3---3---3---|3---3---3---3---3---3---3---3---|
|3---3---3---3---3---3---3---3---|3---3---3---3---3---3---3---3---|
|1---1---1---1---1---1---1---1---|1---1---1---1---1---1---1---1---|
|--------------------------------|--------------------------------|
 X   X   X   X   X   X   X   X    X   X   X   X   X   X   X   X

                 Que  e--ra      lo       que     lo ha---bía


 |       |       |       |        |       |       |       |
|--------------------------------|--------------------------------|
|--------------------------------|--------------------------------|
|6---6---6---6---6---6---6---6---|6---6---6---6---6---5---4---3---|
|6---6---6---6---6---6---6---6---|6---6---6---6---6---5---4---3---|
|4---4---4---4---4---4---4---4---|4---4---4---4---4---3---2---1---|
|--------------------------------|--------------------------------|
 X   X   X   X   X   X   X   X    X   X   X   X

 Des---------per---------ta---------------do


 |       |       |       |        |       |       |       |
|--------------------------------|--------------------------------|
|--------------------------------|--------------------------------|
|--------------------------------|--------------------------------|
|7---7---7---7---7---7---7---7---|7---7---7---7---7---7---7---7---|
|7---7---7---7---7---7---7---7---|7---7---7---7---7---7---7---7---|
|5---5---5---5---5---5---5---5---|5---5---5---5---5---5---5---5---|
 X   X   X   X   X   X   X   X    X   X   X   X   X   X   X   X

                 Son     las      tres    y       die-----ci---


 |       |       |       |        |       |       |       |
|--------------------------------|--------------------------------|
|--------------------------------|--------------------------------|
|--------------------------------|--------------------------------|
|4---4---4---4---4---4---4---4---|4---4---4---4---4---4---4---4---|
|4---4---4---4---4---4---4---4---|4---4---4---4---4---4---4---4---|
|2---2---2---2---2---2---2---2---|2---2---2---2---2---2---2---2---|
 X   X   X   X   X   X   X   X    X   X   X   X   X   X   X   X

-seis


 |       |       |       |        |       |       |       |
|--------------------------------|--------------------------------|
|--------------------------------|--------------------------------|
|3---3---3---3---3---3---3---3---|3---3---3---3---3---3---3---3---|
|3---3---3---3---3---3---3---3---|3---3---3---3---3---3---3---3---|
|1---1---1---1---1---1---1---1---|1---1---1---1---1---1---1---1---|
|--------------------------------|--------------------------------|
 X   X   X   X   X   X   X   X    X   X   X   X   X   X   X   X

                 Y       se       sen-----tí------a   un  poco


 |       |       |       |        |       |       |       |
|--------------------------------|--------------------------------|
|--------------------------------|--------------------------------|
|6---6---6---6---6---6---6---6---|6---6---6---6---6---6---6---6---|
|6---6---6---6---6---6---6---6---|6---6---6---6---6---6---6---6---|
|4---4---4---4---4---4---4---4---|4---4---4---4---4---4---4---4---|
|--------------------------------|--------------------------------|
 X   X   X   X   X   X   X   X    X   X   X   X   X   X   X   X

 a----------ve-----------ria--------------do


 |       |       |       |        |       |       |       |
|--------------------------------|--------------------------------|
|--------------------------------|--------------------------------|
|3-------3-----------------------|--------------------------------|
|3-------3-----------------------|7---6-------5-------------------|
|1-------1-----------------------|7---6-------5-------------------|
|--------------------------------|5---4-------3-------------------|

 |       |       |       |        |       |       |       |
|--------------------------------|--------------------------------|
|--------------------------------|--------------------------------|
|--------3---------------3-------|--------3---------------3-------|
|4---4---4-------4---4---4-------|4---4---4-------4---4---4-------|
|4---4---4-------4---4---4-------|4---4---4-------4---4---4-------|
|2---2-----------2---2-----------|2---2-----------2---2-----------|
 X   X           X   X            X   X           X   X

 |       |       |       |        |       |       |       |
|--------------------------------|--------------------------------|
|--------------------------------|--------------------------------|
|3-------3-----------------------|--------------------------------|
|3-------3-----------------------|7---6-------5-------------------|
|1-------1-----------------------|7---6-------5-------------------|
|--------------------------------|5---4-------3-------------------|

 |       |       |       |        |       |       |       |
|--------------------------------|--------------------------------|
|--------------------------------|--------------------------------|
|--------3---------------3-------|--------3---------------3-------|
|4---4---4-------4---4---4-------|4---4---4-------4---4---4-------|
|4---4---4-------4---4---4-------|4---4---4-------4---4---4-------|
|2---2-----------2---2-----------|2---2-----------2---2-----------|
 X   X           X   X            X   X           X   X

 |       |       |       |        |       |       |       |
|--------------------------------|--------------------------------|
|--------------------------------|--------------------------------|
|3-------3-----------------------|--------------------------------|
|3-------3-----------------------|7---6-------5-------------------|
|1-------1-----------------------|7---6-------5-------------------|
|--------------------------------|5---4-------3-------------------|

 |       |       |       |        |       |       |       |
|--------------------------------|--------------------------------|
|--------------------------------|--------------------------------|
|--------3---------------3-------|--------3---------------3-------|
|4---4---4-------4---4---4-------|4---4---4-------4---4---4-------|
|4---4---4-------4---4---4-------|4---4---4-------4---4---4-------|
|2---2-----------2---2-----------|2---2-----------2---2-----------|
 X   X           X   X            X   X           X   X

 |       |       |       |        |       |       |       |
|--------------------------------|--------------------------------|
|--------------------------------|--------------------------------|
|--------------------------------|--------------------------------|
|3---3---3---3---3---3---3---3---|3---3---3---3---3---------------|
|3---3---3---3---3---3---3---3---|3---3---3---3---3---------------|
|1---1---1---1---1---1---1---1---|1---1---1---1---1---0---2---3---|

 |       |       |       |        |       |       |       |
|--------------------------------|--------------------------------|
|--------------------------------|--------------------------------|
|--------------------------------|--------------------------------|
|--------------------------------|------------5-------------------|
|0-------4-------------------0---|----4---------------------------|
|----------------0---2---3-------|--------------------0---2---3---|

 |       |       |       |        |       |       |       |
|--------------------------------|--------------------------------|
|--------------------------------|--------------------------------|
|--------------------------------|--------------------5-----------|
|--------------------------------|------------5-----------4---5---|
|0-------4-------------------0---|----4---------------------------|
|----------------0---2---3-------|--------------------------------|

 |       |       |       |        |       |       |       |
|--------------------------------|--------------------------------|
|--------------------------------|--------------------------------|
|----------------5---------------|------------5-------------------|
|3-------2-----------4---5---3---|----2-----------4---5---3-------|
|--------------------------------|--------------------------------|
|--------------------------------|--------------------------------|

 |       |       |       |        |       |       |       |
|--------------------------------|--------------------------------|
|--------------------------------|--------------------------------|
|--------5-----------------------|--------------------------------|
|2-----------4---5---3-------2---|--------------------------------|
|--------------------------------|----------------0-------4-------|
|--------------------------------|----0---2---3-------------------|

 |       |       |       |        |       |       |       |
|--------------------------------|--------------------------------|
|--------------------------------|--------------------------------|
|--------------------------------|--------------------------------|
|----------------------------5---|--------------------------------|
|------------0-------4-----------|----------------0-------4-------|
|0---2---3-----------------------|----0---2---3-------------------|

 |       |       |       |        |       |       |       |
|--------------------------------|--------------------------------|
|--------------------------------|--------------------------------|
|--------------------------------|----5---------------------------|
|----------------------------5---|--------4---5---3-------2-------|
|------------0-------4-----------|--------------------------------|
|0---2---3-----------------------|--------------------------------|

 |       |       |       |        |       |       |       |
|--------------------------------|--------------------------------|
|--------------------------------|--------------------------------|
|5---------------------------5---|------------------------5-------|
|----4---5---3-------2-----------|4---5---3-------2-----------4---|
|--------------------------------|--------------------------------|
|--------------------------------|--------------------------------|

 |       |       |       |        |       |       |       |
|--------------------------------|--------------------------------|
|--------------------------------|--------------------------------|
|--------------------5-----------|--------------------------------|
|5---3-------2-----------4---5---|7---7---7---7---7---7---7---7---|
|--------------------------------|7---7---7---7---7---7---7---7---|
|--------------------------------|5---5---5---5---5---5---5---5---|
                                  X   X   X   X   X   X   X   X

                                                  Y  ahi  LA


 |       |       |       |        |       |       |       |
|--------------------------------|--------------------------------|
|--------------------------------|--------------------------------|
|--------------------------------|--------------------------------|
|7---7---7---7---7---7---7---7---|4---4---4---4---4---4---4---4---|
|7---7---7---7---7---7---7---7---|4---4---4---4---4---4---4---4---|
|5---5---5---5---5---5---5---5---|2---2---2---2---2---2---2---2---|
 X   X   X   X   X   X   X   X    X   X   X   X   X   X   X   X

 du------da   a--pa------re------ ció


 |       |       |       |        |       |       |       |
|--------------------------------|--------------------------------|
|--------------------------------|--------------------------------|
|--------------------------------|3---3---3---3---3---3---3---3---|
|4---4---4---4---4---4---4---4---|3---3---3---3---3---3---3---3---|
|4---4---4---4---4---4---4---4---|1---1---1---1---1---1---1---1---|
|2---2---2---2---2---2---2---2---|--------------------------------|
 X   X   X   X   X   X   X   X    X   X   X   X   X   X   X   X

                                                 ¿Es------ta------


 |       |       |       |        |       |       |       |
|--------------------------------|--------------------------------|
|--------------------------------|--------------------------------|
|3---3---3---3---3---3---3---3---|6---6---6---6---6---6---6---6---|
|3---3---3---3---3---3---3---3---|6---6---6---6---6---6---6---6---|
|1---1---1---1---1---1---1---1---|4---4---4---4---4---4---4---4---|
|--------------------------------|--------------------------------|
 X   X   X   X   X   X   X   X    X   X   X   X   X   X   X   X

-rí------a  el   que-----so  en   mal         es----------ta------


 |       |       |       |        |       |       |       |
|--------------------------------|--------------------------------|
|--------------------------------|--------------------------------|
|6---6---6---6---6---5---4---3---|--------------------------------|
|6---6---6---6---6---5---4---3---|7---7---7---7---7---7---7---7---|
|4---4---4---4---4---3---2---1---|7---7---7---7---7---7---7---7---|
|--------------------------------|5---5---5---5---5---5---5---5---|
 X   X   X   X                    X   X   X   X   X   X   X   X

---------do?                                      Por     si  a---


 |       |       |       |        |       |       |       |
|--------------------------------|--------------------------------|
|--------------------------------|--------------------------------|
|--------------------------------|--------------------------------|
|7---7---7---7---7---7---7---7---|4---4---4---4---4---4---4---4---|
|7---7---7---7---7---7---7---7---|4---4---4---4---4---4---4---4---|
|5---5---5---5---5---5---5---5---|2---2---2---2---2---2---2---2---|
 X   X   X   X   X   X   X   X    X   X   X   X   X   X   X   X

-ca------so      vo------mi------tó


 |       |       |       |        |       |       |       |
|--------------------------------|--------------------------------|
|--------------------------------|--------------------------------|
|--------------------------------|3---3---3---3---3---3---3---3---|
|4---4---4---4---4---4---4---4---|3---3---3---3---3---3---3---3---|
|4---4---4---4---4---4---4---4---|1---1---1---1---1---1---1---1---|
|2---2---2---2---2---2---2---2---|--------------------------------|
 X   X   X   X   X   X   X   X    X   X   X   X   X   X   X   X

[oh]                                              Y       se


 |       |       |       |        |       |       |       |
|--------------------------------|--------------------------------|
|--------------------------------|--------------------------------|
|3---3---3---3---3---3---3---3---|6---6---6---6---6---6---6---6---|
|3---3---3---3---3---3---3---3---|6---6---6---6---6---6---6---6---|
|1---1---1---1---1---1---1---1---|4---4---4---4---4---4---4---4---|
|--------------------------------|--------------------------------|
 X   X   X   X   X   X   X   X    X   X   X   X   X   X   X   X

 vol-----vió a   dor-----mir      a-----------li----------via-----


 |       |       |       |        |       |       |       |
|--------------------------------|--------------------------------|
|--------------------------------|--------------------------------|
|6---6---6---6---6---6---6---6---|3-------3-----------------------|
|6---6---6---6---6---6---6---6---|3-------3-----------------------|
|4---4---4---4---4---4---4---4---|1-------1-----------------------|
|--------------------------------|--------------------------------|
 X   X   X   X   X   X   X   X

-DO


 |       |       |       |        |       |       |       |
|--------------------------------|--------------------------------|
|--------------------------------|--------------------------------|
|--------------------------------|--------3---------------3-------|
|7---6-------5-------------------|4---4---4-------4---4---4-------|
|7---6-------5-------------------|4---4---4-------4---4---4-------|
|5---4-------3-------------------|2---2-----------2---2-----------|
                                  X   X           X   X

 |       |       |       |        |       |       |       |
|--------------------------------|--------------------------------|
|--------------------------------|--------------------------------|
|--------3---------------3-------|3-------3-----------------------|
|4---4---4-------4---4---4-------|3-------3-----------------------|
|4---4---4-------4---4---4-------|1-------1-----------------------|
|2---2-----------2---2-----------|--------------------------------|
 X   X           X   X

 |       |       |       |        |       |       |       |
|--------------------------------|--------------------------------|
|--------------------------------|--------------------------------|
|--------------------------------|--------3---------------3-------|
|7---6-------5-------------------|4---4---4-------4---4---4-------|
|7---6-------5-------------------|4---4---4-------4---4---4-------|
|5---4-------3-------------------|2---2-----------2---2-----------|
                                  X   X           X   X

 |       |       |       |        |       |       |       |
|--------------------------------|--------------------------------|
|--------------------------------|--------------------------------|
|--------3---------------3-------|3-------3-----------------------|
|4---4---4-------4---4---4-------|3-------3-----------------------|
|4---4---4-------4---4---4-------|1-------1-----------------------|
|2---2-----------2---2-----------|--------------------------------|
 X   X           X   X

 |       |       |       |        |       |       |       |
|--------------------------------|--------------------------------|
|--------------------------------|--------------------------------|
|--------------------------------|--------3---------------3-------|
|7---6-------5-------------------|4---4---4-------4---4---4-------|
|7---6-------5-------------------|4---4---4-------4---4---4-------|
|5---4-------3-------------------|2---2-----------2---2-----------|
                                  X   X           X   X

 |       |       |       |        |       |       |       |
|--------------------------------|--------------------------------|
|--------------------------------|--------------------------------|
|--------3---------------3-------|--------------------------------|
|4---4---4-------4---4---4-------|3---3---3---3---3---3---3---3---|
|4---4---4-------4---4---4-------|3---3---3---3---3---3---3---3---|
|2---2-----------2---2-----------|1---1---1---1---1---1---1---1---|
 X   X           X   X

 |       |       |       |
|--------------------------------|
|--------------------------------|
|--------------------------------|
|3---3---3---3---3---------------|
|3---3---3---3---3---------------|
|1---1---1---1---1---------------|


NOTA:
(X) = Mutear nota


Se despertó sin saber
qué era lo que lo había despertado.
Eran 3 y 16
y se sentía un poco averiado.
Y ahí la duda apareció,
¿estaría el queso en mal estado?
Por si acaso vomitó
y se volvió a dormir aliviado.

            
            
Suggest correction
Creating personal tab
Creating personal tab
You can edit any tab online and save it as your Personal.

You can edit, replace or remove any tab part or add personal notes – all changes will be seen only by you.

Personal tabs can be accessed anytime from any device, even offline.
Learn more »
Give kudos to tab author, rate the tab!
1 2 3 4 5
comments
print report bad tab
guest
Wanna post a correction for this tab? Suggest correction