Oops, an error
Loading. Please wait.

Suerte De Plegaria tab

by Pez
34 views 1 this week
no commentswrite comment
1 2 3 4 5
3 more votes to show rating
add to favorites
×
Save as Personal and add changes to this tab that will be seen only by you. Learn more ›
×
You can save this tab as Personal to edit and correct it or add notes. All changes will be seen only by you. Learn more »
launch autoscroll
font size
0
reset
how to read this tab
guitar tuner
edit
Autoscroll
slow
fast
+/-
esc
set tempo
stop
Suerte de intro (si alguien la saca mejor, mejor!)


----------------------------------------
--------0--------0----------------------
------0--------0------------0-----------
-7h9-------7h9------------0-------------
---------------------9h10------9h10-0-9-
----------------------------------------

Durante el verso

--------------------------------------------
-8-----------8-8-------10--10-----8------7--
-7---------5---5-----7-----7----5------7----
-5-------7-----7---9-------9--7------4------
--------------------------------------------
--------------------------------------------
Hay...   que cantar..... para que llueva...


(intro)


Hay que esperar la luna nueva


Em            A
Y morir de amor
D     C     G G/F#
debe ser mejor
Em           A
que quedar asi
D    C       G
seco bajo el sol

(intro)

(sobre el riff del verso)

Y comprometerse a full todos los días
más vale prepararse porque esto va a durar
y no buscar más excusas que anestesien nuestra vida
y sacarnos tanta niebla de encima y despertar

                     G
Si el intento o la duda, nunca dudo voy con todo
               C9
y más vale prepararse porque esto va a durar
               Am
si lo único que hay es tiempo yo se lo dedico todo
               D                        C
a sacarme tanta niebla de encima y despertar

Em           A
Y morir de amor
D     C    G G/F#
debe ser mejor
Em          A
que quedar así
D     C    G G/F#
seco bajo el sol

Em      Bb
Oohhh ohh ohhhh

(Intro hasta el final)


Saludos y suerte!
Zr. Zorrino.

            
            
Suggest correction
Creating personal tab
Creating personal tab
You can edit any tab online and save it as your Personal.

You can edit, replace or remove any tab part or add personal notes – all changes will be seen only by you.

Personal tabs can be accessed anytime from any device, even offline.
Learn more »
Give kudos to tab author, rate the tab!
1 2 3 4 5
comments
print report bad tab
guest
Wanna post a correction for this tab? Suggest correction