Oops, an error
Loading. Please wait.

Divine Romance intro tab

version 1
version 1

Intro

Whole song

49,583 views 9 this week
no commentswrite comment
1 2 3 4 5
x 7
add to favorites
×
Save as Personal and add changes to this tab that will be seen only by you. Learn more ›
×
You can save this tab as Personal to edit and correct it or add notes. All changes will be seen only by you. Learn more »
launch autoscroll
font size
0
reset
how to read this tab
guitar tuner
edit
Autoscroll
slow
fast
+/-
esc
set tempo
stop
Author
WARNING: WHAT YOU SEE LOOKS HARD, BUT IT'S NOT.

This will be very cool.  It's not really as hard as it looks, okay? Okay!
I tried to keep this spaced out enough so you can understand the order.  Nothing is perfect
like some people do.

Note1: xhy means an x hammered to a y
Note2: If you are playing to the recording, downtune each string one fret.
Note3: There a are really only 4 chords you need to know, F, C Gsus, and Am7/(Am)

F C Gsus Am7 Am hopefulle those<--- will be blue so you can see how to do the chord.

--F---------------------------------------------------------------|Am7
e|----------------------------------------------------------------|
B|--------------1-----------------1---------------1---------------|
G|-0h2--------------------0-----------------0-------------0-------|
D|-----------3--------2------2------------2-------------2---------|
A|--------3--------0----0------0-------0-------0------0------0----|
E|----------------------------------------------------------------|

--F-----------------C-------------------------------------|Gsus
e|------------------------------------------------0-------|
B|--------------1----------------------------1---------1--|
G|-0h2---------------------0---------------0--------------|
D|-----------3----------2-----2----------0----------------|
A|--------3---------3-----------3-------------------------|
E|------------------------------------3--------3------3---|

--F-------------------------------------------------------------------|Am7
e|--------------------------------------------------------------------|
B|-1------------1-----------------1---------------1-------------------|
G|-0h2--------------------0-----------------0-------------0-----------|
D|-3---------3--------2------2------------2-------------2-------------|
A|-3------3--------0----0------0-------0-------0------0------0--------|
E|--------------------------------------------------------------------|
The Fullness ---------------------------------------------------------|of
-----F----------------C-----------------------------------------------|Gsus
--e|------------------------------------------------------------------|
--B|-1------------1---------------------------------1-----------------|
--G|-0h2---------------------0---------------0-------------0----------|
--D|-3---------3----------2-----2----------0---0---------0------------|
--A|-3------3---------3-----------3-----------------------------------|
--E|------------------------------------3--------3-----3------3-------|
Your Grace is --------here --with-------------------------------------|me

--F-----------------C-------------------------------------|Gsus
e|-------------------------------------------------0------|
B|--------------1-----------------------------1-----------|
G|-0h2---------------------0---------------0--------------|
D|-----------3----------2-----2----------0----------------|
A|--------3---------3-----------3-------------------------|
E|------------------------------------3---------3---------|
the richness -----|of

--F-----------------C------------------------------------------|Gsus
e|------------------------------------------------0------------|
B|--------------1----------------------------1---------1-------|
G|-0h2---------------------0---------------0-------------------|
D|-----------3----------2-----2----------0---------------------|
A|--------3---------3-----------3------------------------------|
E|------------------------------------3--------3------3--------|
your beauty's-------all i--------------------------------------|see

That should be enough that you have the basic idea, only except, you'll have to do this
the chorus.

--F----------------------------------------------------------|C
e|-----------------------------------------------------------|
B|--------------1--------------------------------1-----------|
G|-0h2---------------------2-------------0-------------0-----|
D|-----------3----------3-----3-------2----2---------2-------|
A|--------3---------3-----------3---3---------3-----3----3---|
E|-----------------------------------------------------------|
for you-----------------sing---------------------------------|dance

e|------------------------------------------------0----|
B|--------------1----------------------------1---------|
G|-0h2---------------------0---------------0-----------|
D|-----------3----------2-----2----------0-------------|
A|--------3---------3-----------3----------------------|
E|------------------------------------3--------3-------|
re|joice...

--F-----------------------------Am(regular)---------------|
e|--------------------------------------------------------|
B|-------------1-----------------------------1------------|
G|-0h2------------------2-------------2------------2------|
D|----------3---------3----3--------2---2--------2--------|
A|-------3---------3---------3----0-------0-----0---0-----|
E|--------------------------------------------------------|
--heart---------------------------------------------------|hands

-|Gsus
e|--------------3--------------------|
B|--------1-------------1---0--------|
G|------0------------0---------------|
D|-----0-----------------------------|
A|-----------------------------------|
E|-3---------3-----3-----------------|
-|love

That's really as accurate as it gets.  do a youtube search for "divine romance phil 
to get videos of him playing it.  Play it enough times and you'll soon enough have your own 
act.  This is just the intro, look at other tabs for the rest.


If your going to have someone else playing the other part durring the interlude time, it's
like this.  (this is tuned to the primary guitar.)

---e|------3h5----3------------|
---B|------------------5-------|
---G|--------------------------|

---e|------3h5----3-------------------------|
---B|------------------5--------1---------3-|
---G|---------------------------------------|

            
            
Suggest correction
Creating personal tab
Creating personal tab
You can edit any tab online and save it as your Personal.

You can edit, replace or remove any tab part or add personal notes – all changes will be seen only by you.

Personal tabs can be accessed anytime from any device, even offline.
Learn more »
comments
print report bad tab
guest
You may want to rate the tab now too:
select rating
Wanna post a correction for this tab? Suggest correction