Oops, an error
Loading. Please wait.

Heaven Fall Down tab

version 2
version 2

Whole song

840 views 6 this week
no commentswrite comment
1 2 3 4 5
3 more votes to show rating
add to favorites
×
Save as Personal and add changes to this tab that will be seen only by you. Learn more ›
×
You can save this tab as Personal to edit and correct it or add notes. All changes will be seen only by you. Learn more »
launch autoscroll
font size
0
reset
how to read this tab
guitar tuner
edit
Autoscroll
slow
fast
+/-
esc
set tempo
stop
Author
Difficulty
Heaven Fall Down (Live Acoustic) - Phil Wickham
Tabbed by Justin Chung

Notes
- Please give me credit if you are share it with someone!
- From the album - Singalong 2
- Key of C
- Tuning: D G C F A D (Standard Tuning tuned down a whole step)
- Listen to the version from the album to get the strum pattern
- I believe he uses a delay pedal for his riff

Intro Riff x2:

Extended Chorus:
Heaven, heaven fall down, Spirit, Spirit pour out
Heaven, heaven fall down, Spirit, Spirit pour out, on us all now
Heaven fall down

Verse 1:
Open our eyes, Lord let us see, 
All that You are, all that You mean
Open our ears, Lord let us hear, 
All that You are, be loud and clear, please be near

Pre-chorus:
As our praises rise, may Your presence fall

Chorus:
Heaven, Heaven fall down, Spirit, Spirit pour out, on us all now
Heaven fall down

Verse 2:
Come Jesus come, come like the wind,
Fill up this place, we welcome You in
Come Jesus come, come like the rain, 
Open the sky, show us Your face, oh Lord we wait

Pre-chorus:
As our praises rise, may your presence fall

Chorus:
Heaven, heaven fall down, Spirit, Spirit pour out, on us all now
Heaven fall down

Bridge x3
We're crying out in desperation, waiting now in expectation
Crying out in desperation, for You

Extended Chorus:
Heaven, Heaven fall down, Spirit, Spirit pour out
Heaven, Heaven fall down, Spirit, Spirit pour out, on us all now
Heaven fall

Post-Chorus:
Heaven fall, heaven fall, heaven fall, sing heaven (to Extended Chorus)




Intro Riff:
D|--X--------|--X--------|--X--------|--X-------|
A|-10--------|-10--------|-10--------|-10-------|
F|-11--------|-12--------|-11--------|-12-------|
C|--0--------|--0--------|--0--------|--0-------|
G|--X--------|--X--------|--X--------|--X-------|
D|-10--------|-10--------|-10--------|-10-------|

Extended Refrain Riff:
    C                       Am          F
D|--X-------------X---X--|-X---------|-X--------|
A|-10------------10--10--|-7---------|-3--------|
F|-11------------12--11--|-7---------|-4--------|
C|--0-------------0---0--|-0---------|-0--------|   x3
G|--X-------------X---X--|-X---------|-X--------|
D|-10------------10--10--|-7---------|-3--------|

    C                       Am         G          F          
D|--X-------------X---X--|-X---------|-X--------|-X--------|
A|-10------------10--10--|-7---------|-5--------|-3--------|
F|-11------------12--11--|-7---------|-6--------|-4--------|
C|--0-------------0---0--|-0---------|-0--------|-0--------|
G|--X-------------X---X--|-X---------|-X--------|-X--------|
D|-10------------10--10--|-7---------|-5--------|-3--------|

   F           C (Intro Riff)
D|-X--------|--X---------|
A|-3--------|-10---------|
F|-4--------|-11---------|
C|-0--------|--0---------|
G|-X--------|--X---------|
D|-3--------|-10---------|


Verse Riff:
    C            
D|--X--------|--X--------|--X--------|--X-------|
A|-10--------|-10--------|-10--------|-10-------|
F|-11--------|-11--------|-11--------|-11-------|
C|--0--------|--0--------|--0--------|--0-------|
G|--X--------|--X--------|--X--------|--X-------|
D|-10--------|-10--------|-10--------|-10-------|

   Am           F
D|-X---X---X--|-X--------|
A|-7---7---5--|-3--------|
F|-7---7---7--|-4--------|
C|-0---0---0--|-0--------|
G|-X---X---X--|-X--------|
D|-7---7---7--|-3--------|

    C
D|--X--------|--X--------|--X--------|--X-------|
A|-10--------|-10--------|-10--------|-10-------|
F|-11--------|-11--------|-11--------|-11-------|
C|--0--------|--0--------|--0--------|--0-------|
G|--X--------|--X--------|--X--------|--X-------|
D|-10--------|-10--------|-10--------|-10-------|

   Am          F            C
D|-X---X---X-|-X---------|--X----X---|--X-------|
A|-7---7---5-|-3---------|-10---10---|-10-------|
F|-7---7---7-|-4---------|-11---12---|-11-------|
C|-0---0---0-|-0---------|--0----0---|--0-------|
G|-X---X---X-|-X---------|--X----X---|--X-------|
D|-7---7---7-|-3---------|-10---10---|-10-------|

Pre-Chorus 1:
   F                       (G)
D|-X---------|-----------|-(X)-------|----------|
A|-3---------|-----------|-(5)-------|----------|
F|-4---------|-----------|-(6)-------|----------|
C|-0---------|-----------|-(0)-------|----------|
G|-X---------|-----------|-(X)-------|----------|
D|-3---------|-----------|-(5)-------|----------|

Refrain Riff
    C                      Am          F
D|--X-------------X---X--|-X---------|-X--------|
A|-10------------10--10--|-7---------|-3--------|
F|-11------------12--11--|-7---------|-4--------|
C|--0-------------0---0--|-0---------|-0--------| 
G|--X-------------X---X--|-X---------|-X--------|
D|-10------------10--10--|-7---------|-3--------|

    C                      Am          G          F          
D|--X-------------X---X--|-X---------|-X--------|-X--------|
A|-10------------10--10--|-7---------|-5--------|-3--------|
F|-11------------12--11--|-7---------|-6--------|-4--------|
C|--0-------------0---0--|-0---------|-0--------|-0--------|
G|--X-------------X---X--|-X---------|-X--------|-X--------|
D|-10------------10--10--|-7---------|-5--------|-3--------|

   F           C                        F         
D|-X--------|--X---------|--X---------|-X-------|-X--------|
A|-3--------|-10---------|-10---------|-3-------|-3--------|
F|-4--------|-11---------|-11---------|-4-------|-4--------|
C|-0--------|--0---------|--0---------|-0-------|-0--------|
G|-X--------|--X---------|--X---------|-X-------|-X--------|
D|-3--------|-10---------|-10---------|-3-------|-3--------|


Verse 2 (Variation):
    C
D|--X--------|--X--------|--X--------|--X-------|
A|-10--------|-10--------|-10--------|-10-------|
F|-11--------|-11--------|-11--------|-11-------|
C|--0--------|--0--------|--0--------|--0-------|
G|--X--------|--X--------|--X--------|--X-------|
D|-10--------|-10--------|-10--------|-10-------|

   Am              F
D|-X-X---X-X-X---|-X--------|
A|-7-5h7-7-7-5h7-|-3--------|
F|-7-7---7-7-7---|-4--------|
C|-0-0---0-0-0---|-0--------|
G|-X-X---X-X-X---|-X--------|
D|-7-7---7-7-7---|-3--------|

    C
D|--X--------|--X--------|--X--------|--X-------|
A|-10--------|-10--------|-10--------|-10-------|
F|-11--------|-12--------|-11--------|-11-------|
C|--0--------|--0--------|--0--------|--0-------|
G|--X--------|--X--------|--X--------|--X-------|
D|-10--------|-10--------|-10--------|-10-------|

   Am           F           C
D|-X---X---X--|-X--------|--X----X---|--X-------|
A|-7---7---5--|-3--------|-10---10---|-10-------|
F|-7---7---7--|-4--------|-11---12---|-11-------|
C|-0---0---0--|-0--------|--0----0---|--0-------|
G|-X---X---X--|-X--------|--X----X---|--X-------|
D|-7---7---7--|-3--------|-10---10---|-10-------|

Pre-Chorus 1:
   F                       G
D|-X---------|-----------|-X---------|----------|
A|-3---------|-----------|-5---------|----------|
F|-4---------|-----------|-6---------|----------|
C|-0---------|-----------|-0---------|----------|
G|-X---------|-----------|-X---------|----------|
D|-3---------|-----------|-5---------|----------|

Refrain Riff
    C                      Am          F
D|--X-------------X---X--|-X---------|-X--------|
A|-10------------10--10--|-7---------|-3--------|
F|-11------------12--11--|-7---------|-4--------|
C|--0-------------0---0--|-0---------|-0--------| 
G|--X-------------X---X--|-X---------|-X--------|
D|-10------------10--10--|-7---------|-3--------|

    C                      Am          G          F          
D|--X-------------X---X--|-X---------|-X--------|-X--------|
A|-10------------10--10--|-7---------|-5--------|-3--------|
F|-11------------12--11--|-7---------|-6--------|-4--------|
C|--0-------------0---0--|-0---------|-0--------|-0--------|
G|--X-------------X---X--|-X---------|-X--------|-X--------|
D|-10------------10--10--|-7---------|-5--------|-3--------|

   F           C            C           Am        F    C/E
D|-X--------|--X---------|--X---------|-X-------|-X----0---|
A|-3--------|-10---------|-10---------|-7-------|-3----2---|
F|-4--------|-11---------|-11---------|-7-------|-4----2---|
C|-0--------|--0---------|--0---------|-0-------|-0----0---|
G|-X--------|--X---------|--X---------|-X-------|-X----X---|
D|-3--------|-10---------|-10---------|-7-------|-3----2---|

Bridge:
   F          Am         G          C/E
D|-3--------|-X--------|-X--------|-0-------|
A|-3--------|-3--------|-3--------|-2-------|
F|-0--------|-2--------|-2--------|-2-------|
C|-0--------|-X--------|-2--------|-0-------|
G|-X--------|-2--------|-0--------|-X-------|
D|-3--------|-X--------|-X--------|-2-------|

F          Am         G          C/E
D|-3--------|-X--------|-X--------|-0-------|
A|-3--------|-3--------|-3--------|-2-------|
F|-0--------|-2--------|-2--------|-2-------|
C|-0--------|-X--------|-2--------|-0-------|
G|-X--------|-2--------|-0--------|-X-------|
D|-3--------|-X--------|-X--------|-2-------|


Extended Refrain Riff 2:
    C                      Am          F
D|--X-------------X---X--|-X---------|-X--------|
A|-10------------10--10--|-7---------|-3--------|
F|-11------------12--11--|-7---------|-4--------|
C|--0-------------0---0--|-0---------|-0--------|     x3
G|--X-------------X---X--|-X---------|-X--------|
D|-10------------10--10--|-7---------|-3--------|

    C                      Am          G          F          
D|--X-------------X---X--|-X---------|-X--------|-X--------|
A|-10------------10--10--|-7---------|-5--------|-3--------|
F|-11------------12--11--|-7---------|-6--------|-4--------|
C|--0-------------0---0--|-0---------|-0--------|-0--------|
G|--X-------------X---X--|-X---------|-X--------|-X--------|
D|-10------------10--10--|-7---------|-5--------|-3--------|

   F           C                        Am        F
D|-X--------|--X----X----|--X----X----|-X-------|-X--------|
A|-3--------|-10---10----|-10---10----|-7-------|-3--------|
F|-4--------|--9h11-9h11-|--9h11-9h11-|-7-------|-4--------|
C|-0--------|--0----0----|--0----0----|-0-------|-0--------|
G|-X--------|--X----X----|--X----X----|-X-------|-X--------|
D|-3--------|-10---10----|-10---10----|-7-------|-3--------|

Post-Bridge:
   F          G            Am           Am   G
D|-X--------|-X----------|-X----------|-X----X---|
A|-3--------|-5----------|-7----------|-7----5---|
F|-4--------|-6----------|-7----------|-7----6---|
C|-0--------|-0----------|-0----------|-0----0---|
G|-X--------|-X----------|-X----------|-X----X---|
D|-3--------|-5----------|-7----------|-7----5---|

Extended Refrain Riff:
    C                       Am          F
D|--X-------------X---X--|-X---------|-X--------|
A|-10------------10--10--|-7---------|-3--------|
F|-11------------12--11--|-7---------|-4--------|
C|--0-------------0---0--|-0---------|-0--------|   x3
G|--X-------------X---X--|-X---------|-X--------|
D|-10------------10--10--|-7---------|-3--------|

    C                       Am         G          F          
D|--X-------------X---X--|-X---------|-X--------|-X--------|
A|-10------------10--10--|-7---------|-5--------|-3--------|
F|-11------------12--11--|-7---------|-6--------|-4--------|
C|--0-------------0---0--|-0---------|-0--------|-0--------|
G|--X-------------X---X--|-X---------|-X--------|-X--------|
D|-10------------10--10--|-7---------|-5--------|-3--------|

   F           C
D|-X--------|--X---------|
A|-3--------|-10---------|
F|-4--------|-11---------|
C|-0--------|--0---------|
G|-X--------|--X---------|
D|-3--------|-10---------|

            
            
Suggest correction
Creating personal tab
Creating personal tab
You can edit any tab online and save it as your Personal.

You can edit, replace or remove any tab part or add personal notes – all changes will be seen only by you.

Personal tabs can be accessed anytime from any device, even offline.
Learn more »
Give kudos to tab author, rate the tab!
1 2 3 4 5
comments
print report bad tab
guest
You may want to rate the tab now too:
select rating
Wanna post a correction for this tab? Suggest correction