Oops, an error
Loading. Please wait.

I Adore You tab

version 1
version 1

Whole song

3,810 views 1 this week
2 commentsread comments
1 2 3 4 5
1 last vote to show rating
add to favorites
×
Save as Personal and add changes to this tab that will be seen only by you. Learn more ›
×
You can save this tab as Personal to edit and correct it or add notes. All changes will be seen only by you. Learn more »
launch autoscroll
font size
0
reset
how to read this tab
guitar tuner
edit
Autoscroll
slow
fast
+/-
esc
set tempo
stop
Author
Artist: Phil Wickham 
Song: I Adore You
Album: Phil Wickham
Transposed by Reuben J. Raya
Email: PurpleStorm08@aol.com

Comments: Play this song...from the soul if not...
email me ... and i'll teach you how :P

b=Bend
r=R.elease from bend
/=slide
h=hammer on
p=pull off
~=vibrato note
(?)= Ghost Note(s). Let Note(s) ring out
x= Don't play note

Intro					
e|--------------------------------------------------16(16)-----------------------|
B|------------------12----14--14--14--14--------------------16(16)-------17(17)--|
G|--13--11--13-------------------------------------------------------------------|
D|-------------------------------------------------------------------------------|
A|-------------------------------------------------------------------------------|
E|-------------------------------------------------------------------------------|

--------------------------------------------------12--12-12--11-11-11---9--9-----|
------------------12----14--14--14--14------------14--14-14--12-12-12---11-11----|
--13--11--13---------------------------------------------------------------------|
---------------------------------------------------------------------------------|
---------------------------------------------------------------------------------|
---------------------------------------------------------------------------------|

--------------------------------------------------16(16)-------------------------|
-----------------12----14--14--14--14----------------------16(16)-------17(17)---|
--13--11--13---------------------------------------------------------------------|
---------------------------------------------------------------------------------|
---------------------------------------------------------------------------------|
---------------------------------------------------------------------------------|
									  Mercy......
-----11-11-11-11-11-11-11-11-------9--9--9--9--9--9--9--9------9-(9)-------------|
-----12-12-12-12-12-12-12-12-------11-11-11-11-11-11-11-11-----11(11)------------|
---------------------------------------------------------------9-(9)-------------|
---------------------------------------------------------------------------------|
---------------------------------------------------------------------------------|
---------------------------------------------------------------------------------|

 ...so lovely...          ...Glory...streams from your face so lovely
Verse
-------------------0(0)---|-----------------------------------------0(0)--------|
-------------------5(5)---|---12(12)--------------------------------5(5)--------|
-------------------4(4)---|---11(11)--------------------------------4(4)--------|
---------9/--------6(6)---|---9-(9)--------------9/---6(6)----------6(6)--------|
--------------------------|-----------------------------------------------------|
--------------------------|-----------------------------------------------------|

------------------------------------------------------------------------|
------------------------------------------------------------------------|
------------------------------------------------------------------------|
-9----9-9-9-9-9--9--9--9--9--9--9--9--9---8-8--8--8--8--8--8------------|
--------------11-11-11-11-11-11-11-11-11-----9--9--9--9--9--9-----------|
------------------------------------------------------------------------|

*Chorus*
Play 16 times then ... 16 times also
-------------------|--------|
----12-------------|--14----|
----11-------------|--13----|
----9--------------|--11----|
-------------------|--------|
-------------------|--------|

-------------|--9-------|
-----12------|--11------|
-----11------|--11------|
------9------|--10------|
-------------|----------|
-------------|----------|

   Notes before "Breakdown"
|-----9-(11)---|
|----11-(11)---|
|----14-(14|---|
|--------------|
|--------------|
|--------------|

-------------------------------------------------------16(16)-------------------------------|
------------------12----14--14--14--14----------------------16(16)-------17(17)-------------|
--13--11--13--------------------------------------------------------------------------------|
--------------------------------------------------------------------------------------------|
--------------------------------------------------------------------------------------------|
--------------------------------------------------------------------------------------------|

--------------------------------------------------12--12-12-12-12-12-12-12-12-12------------|
------------------12----14--14--14--14-----14--14-14--14-14-14-14-14-14-14---12(12)---------|
--13--11--13------------------------------------------------------------------------11(11)--|
-------------------------------------------------------------------------------------9-(9)--|
--------------------------------------------------------------------------------------------|
--------------------------------------------------------------------------------------------|

Beats to the rhythm of your heart...
Verse 2                    (Play soft)			  
----------------------------------------------------------------------------------------------|
-(12)--------------------------5-(5)-----------------------------------12(12)----------5-(5)--|
-(11)--------------------------4-(4)-------------------9--8(8)/6-------11(11)----------4-(4)--|
--(9)--------------------------6-(6)-----------6(6)/9------------------9--(9)----------6-(6)--|
----------------------------------------------------------------------------------------------|
----------------------------------------------------------------------------------------------|

--------------------------------------------------------------------|
--------------------------------------------------------------------|
----------------6--8(8)/6-6--4--4---4----3----3--3--3--3--3--3--3---|
-------6(6)/9-9-----------------------------4--4--4--4--4--4--4--4--|
--------------------------------------------------------------------|
----4---------------------------------------------------------------|

*Chorus*

*Bridge* 

(Acoustic Guitar) Repeats
---0-0-0-0-0-0-0-0--0-0-0-0-0-0-0-0--0-0-0-0-0-0-0-0--0-0-0-0-0-0-0-0--|
---0-0-0-0-0-0-0-0--0-0-0-0-0-0-0-0--0-0-0-0-0-0-0-0--0-0-0-0-0-0-0-0--|
---6-6-6-6-6-6-6-6--4-4-4-4-4-4-4-4--6-6-6-6-6-6-6-6--1-1-1-1-1-1-1-1--|
---6-6-6-6-6-6-6-6--4-4-4-4-4-4-4-4--6-6-6-6-6-6-6-6--2-2-2-2-2-2-2-2--|
---4-4-4-4-4-4-4-4--2-2-2-2-2-2-2-2--4-4-4-4-4-4-4-4--2-2-2-2-2-2-2-2--|
-----------------------------------------------------------------------|

(Electric Guitar)
----------------------------------------------------------------------------------------|
----------------------------------------------------------------------------------------|
--6/8\6/8(8)---8/9\8-8---8/13-13-13-13---13-9-13-9-13-9-13-9--14-11-14-11-14-11-14-11---|
----------------------------------------------------------------------------------------|
----------------------------------------------------------------------------------------|
----------------------------------------------------------------------------------------|

---------------------------------------------------------------------------|
-----------------10--------------------------------------------------------|
--13-9-13-9-11-9---11-13-9-13-9-13-9-13-9-13-9-13-9-13-9-13-9--------------|
---------------------------------------------------------------------------|
---------------------------------------------------------------------------|
---------------------------------------------------------------------------|
                                         I A...                                  
---------------------------------------------------|
--10-10-10-10------11-11-11-11-14-14-14-14---------|
--11-11-11-11------11-11-11-11-11-11-11-11---------|
---------------------------------------------------|
---------------------------------------------------|
---------------------------------------------------|

*Chorus*

Fade out....


            
            
Suggest correction
Creating personal tab
Creating personal tab
You can edit any tab online and save it as your Personal.

You can edit, replace or remove any tab part or add personal notes – all changes will be seen only by you.

Personal tabs can be accessed anytime from any device, even offline.
Learn more »
Give kudos to tab author, rate the tab!
1 2 3 4 5
comments
print report bad tab
2 comments total.
0 reply
DrewMeyer 791 Oct 12, 2011 08:19 PM

Great job, just a bit hard to follow sometimes, but good tab.

0 reply
reubenjraya 10 Apr 24, 2015 11:47 PM

Let me know where, so I can revise it. (4 years late lol)

guest
You may want to rate the tab now too:
select rating
Wanna post a correction for this tab? Suggest correction