Oops, an error
Loading. Please wait.

Sailing On A Ship chords

version 1
version 1

Whole song

25,281 views 33 this week
4 commentsread comments
1 2 3 4 5
x 15
add to favorites
×
Save as Personal and add changes to this tab that will be seen only by you. Learn more ›
×
You can save this tab as Personal to edit and correct it or add notes. All changes will be seen only by you. Learn more »
launch autoscroll
font size
0
reset
transpose
0
reset
display chords
guitar tuner
edit
Autoscroll
slow
fast
+/-
esc
set tempo
stop
Author
Difficulty
Unregistered
Strumming
There is no strumming pattern for this song yet. and get +5 IQ
Beat:  1 2 3 4 1 2 3 4
Strum: x X  xxxx X  xxx

  Am
A voice is on the wind
   Dm
It calls me further in
    Am             C         G
I'm heading deeper into your heart
     Am
Your mark is on my chest
   Dm
My sails filled with your breath
    Am              C            G
You guide me by the light of the stars

                 F                     C
I'm sailing on a ship that's bound for life
                   F                C
I wrestle with the wind against the tide
                 F                 Am
I leave it all behind to reach for more
            G                 Am
I'm sailing on to your golden shore

       Am
Though skies go blue to grey
        Dm
And I'm thrown from wave to wave
    Am                    C             G
You still will hear these lungs singing hard
     Am
With every storm I face
  Dm
I find a greater grace
     Am              C         G
That pulls me deeper into your heart

                 F                     C
I'm sailing on a ship that's bound for life
                   F                C
I wrestle with the wind against the tide
                 F                 Am
I leave it all behind to reach for more
            G
I'm sailing on
                     F                 C
To where the water's running sweet and bright
                  F              C
The sun is rising in the eastern sky
                 F                 Am
I leave it all behind to reach for more
            G                 Am
I'm sailing on to your golden shore

            
            
Suggest correction
Creating personal tab
Creating personal tab
You can edit any tab online and save it as your Personal.

You can edit, replace or remove any tab part or add personal notes – all changes will be seen only by you.

Personal tabs can be accessed anytime from any device, even offline.
Learn more »
comments
print report bad tab
4 comments total. Showing first comments.
+2 reply
ShawtyGarcia 65 Mar 03, 2009 08:19 PM

First off, this is awesome! You didn't make a mistake, there was just something I found that makes it sound more like the recording.

Verse Progression: Am Dm F
Adding the F to the second half of the measure with the Dm makes it sound more like Phil's recording.
And it took me a while to realize it's capo on the 1st fret. Haha. :]

Overall, great job!

+1 reply
davidcjamison 10 Apr 04, 2009 06:34 PM

yeah i agree 100% with the guy above. capo 1 and add F after Dm

+1 reply
austinleedavis 31 Jun 09, 2009 12:40 PM

Awesome fellas. I also wanted to add the intro riff tab:

Am | Am
e|--------------|------0-----0-0-0-----0-----0-0-0-|------0-----0-0-0-----0-----0-0-0-
B|----1------1--|------1-----1-1-1-----1-----1-1-1-|------1-----1-1-1-----1-----1-1-1-
G|----0------0--|------2-----2-2-2-----2-----2-2-2-|------2-----2-2-2-----2-----2-2-2-
D|-2h3---0h2----|------2-----2-2-2-----2-----2-2-2-|------2-----2-2-2-----2-----2-2-2-
A|--------------|--0---------------0---------------|--0---------------0---------------
E|--------------|----------------------------------|----------------------------------
beat: 1 2 3 4 1 2 3 4 1 2 3 4 1 2 3 4

Am | Am F
e|--------------|------1-----1-1-1-----1-----1-1-1-|------1-----1-1-1-----1-----1-1-1-
B|----1------1--|------3-----3-3-3-----3-----3-3-3-|------1-----1-1-1-----1-----1-1-1-
G|----0------0--|------2-----2-2-2-----2-----2-2-2-|------2-----2-2-2-----2-----2-2-2-
D|-2h3---0h2----|--0---------------0---------------|------3-----3-3-3-----3-----3-3-3-
A|--------------|----------------------------------|----------------------------------
E|--------------|----------------------------------|--1---------------1---------------
beat: 1 2 3 4 1 2 3 4 1 2 3 4 1 2 3 4

Repeat

guest
Wanna post a correction for this tab? Suggest correction