Oops, an error
Loading. Please wait.

This Is Amazing Grace tab

version 4
version 4

Whole song

Interactive

1,465 views 6 this week
2 commentsread comments
1 2 3 4 5
x 5
add to favorites
×
Save as Personal and add changes to this tab that will be seen only by you. Learn more ›
×
You can save this tab as Personal to edit and correct it or add notes. All changes will be seen only by you. Learn more »
launch autoscroll
font size
0
reset
how to read this tab
guitar tuner
edit
Autoscroll
slow
fast
+/-
esc
set tempo
stop
Author
Difficulty
-------------------------------------------------------------------------------
                     This Is Amazing Grace - Phil Whickham
-------------------------------------------------------------------------------
Tabbed by: Tyler Ramirez
E-mail: tram8001@gmail.com
INTRO AND VERSE RIFF
Tuning:Standard

INTRO
e|------------------------------------15-------------------------------------|
B|---16-15----15-15----15-------15-18----------------------------------------|
G|---------17-------17----15-17----------------------------------------------|
D|---------------------------------------------------------------------------|
A|---------------------------------------------------------------------------|
E|---------------------------------------------------------------------------|

e|---------------------------------15----------------------------------------|
B|---16-15----15-15----15-------15----18-------------------------------------|
G|---------17-------17----15-17----------------------------------------------|
D|---------------------------------------------------------------------------|
A|---------------------------------------------------------------------------|
E|---------------------------------------------------------------------------|

VERSE RIFF
e|---------------------------------------------------------------------------|
B|---------------------------------------------------------------------------|
G|---------------------------------------------------------------------------|
D|---------12----------12----------12----------------------------------------|
A|------------10----------10----------10-12-13-------------------------------|
E|---11-11-------11-11-------11-11-------------------------------------------|

            
            
Suggest correction
Creating personal tab
Creating personal tab
You can edit any tab online and save it as your Personal.

You can edit, replace or remove any tab part or add personal notes – all changes will be seen only by you.

Personal tabs can be accessed anytime from any device, even offline.
Learn more »
comments
print report bad tab
2 comments total.
0 reply
magdo_gonzale 10 Oct 07, 2015 04:43 PM

Lack of formatting. Tab incomplete. its incomplete. starts off okay
then loses it in the verse. maybe you got lazy or maybe thats all you got.

0 reply
timothy.birky 10 Jan 24, 2016 04:11 PM

anyone know what key?

guest
You may want to rate the tab now too:
select rating
Wanna post a correction for this tab? Suggest correction