Oops, an error
Loading. Please wait.

Im Sorry tab

331 views 1 this week
no commentswrite comment
1 2 3 4 5
3 more votes to show rating
add to favorites
×
Save as Personal and add changes to this tab that will be seen only by you. Learn more ›
×
You can save this tab as Personal to edit and correct it or add notes. All changes will be seen only by you. Learn more »
launch autoscroll
font size
0
reset
how to read this tab
guitar tuner
edit
Autoscroll
slow
fast
+/-
esc
set tempo
stop
Author
Difficulty
I'm Sorry
Philippine Violators
Submitted By: Vendolph Galura (DAMNATION)
incesticide0041@yahoo.com
04-20-07


there are no tabs for this song yet...
so i tabbed it myself...

there's nothing much to tab...
the chord pattern repeats over and over...
all chords are power chords...

Intro:

G-D-Am-C (one measure per chord, 1/8 notes, repeat as many times needed)

Verse: (palm muted)

G-D-Am-C (one measure per chord, 1/8 notes, repeat as many times needed)

Chorus:

G-D-Am-C (one measure per chord, 1/8 notes, repeat as many times needed)

Solo: use the verse chords... starts at the last 1/4 beat of the C chord



   h   q   s s s s    h     +q   e e   
e|------------------|----------------|
B|-------------8h10-|-8~~~---------8-|
G|---------7h9------|------------9---|
D|------------------|----------------|

 
   e  q    e +q e e    e  e  e  q  q  e  
e|-------------------|-------------------|
B|-10b12---10---8-10-|-12-13-12-15-13-12-|
G|-------------------|-------------------|
D|-------------------|-------------------|


   e  e  e  e e e s s s s    h      +q   e e  
e|-------------------------|-----------------|
B|-13-12-10-8---------8h10-|-8~~~~~~-------8-|
G|------------9-7-7h9------|-------------9---|
D|-------------------------|-----------------|


   e  q    e +q e e    e  e  e  q  e  e  e  
e|-------------------|----------------------|
B|-10b12---10---8-10-|-12-13-12-15-13-15b17-|
G|-------------------|----------------------|
D|-------------------|----------------------|



   e  e  s  s  e  e  e e e  
e|-------------------------|
B|-15-13-12h13p12-10-8---8-|
G|---------------------9---|
D|-------------------------|


   s s s s s  s s s s  s s s s  s s s
e|--------------------------------------|
B|*-8-8-8-8-10-8-8-8-12-8-8-8-10-8-8-8-*| X3
G|*------------------------------------*|
D|--------------------------------------|


   s  s s s s  s s s s  s s s s  s s s
e|-------------------------------------|
B|-12-8-8-8-10-8-8-8-12-8-8-8-10-8-8-8-|
G|-------------------------------------|
D|-------------------------------------|


   s s s s s  s s s s  s s s s  s s s
e|--------------------------------------|
B|*-8-8-8-8-10-8-8-8-12-8-8-8-10-8-8-8-*| X2
G|*------------------------------------*|
D|--------------------------------------|


   s s s s s  s  s  s  q    q      
e|-------------------------------|
B|-8-8-8-8-10-10-10-10-12---13---|
G|-------------------------------|
D|-------------------------------|


   q    q    q   q      w           +w
e|--------------------|------------|-----------|
B|-12---10---8---10---|-8~~~~~~~~~~|~~~~~~~~~~-|
G|--------------------|------------|-----------|
D|--------------------|------------|-----------|


h = hammer on
p = pull off
b = bend
~ = vibrato

w = whole note
h = half note
q = quarter note
e = 8th note
s = 16th note
+ = tied note

there you have it...
i hope you understand the durations...
it's 4/4 time...
please rate...
post a comment if you want the Sikat na si Pedro solo...

            
            
Suggest correction
Creating personal tab
Creating personal tab
You can edit any tab online and save it as your Personal.

You can edit, replace or remove any tab part or add personal notes – all changes will be seen only by you.

Personal tabs can be accessed anytime from any device, even offline.
Learn more »
Give kudos to tab author, rate the tab!
1 2 3 4 5
comments
print report bad tab
guest
You may want to rate the tab now too:
select rating
Wanna post a correction for this tab? Suggest correction