Oops, an error
Loading. Please wait.

Bathtub Gin solo tab

version 3
version 3
by Phish
231 views 9 this week
3 commentsread comments
1 2 3 4 5
2 more votes to show rating
add to favorites
×
Save as Personal and add changes to this tab that will be seen only by you. Learn more ›
×
You can save this tab as Personal to edit and correct it or add notes. All changes will be seen only by you. Learn more »
launch autoscroll
font size
0
reset
how to read this tab
guitar tuner
edit
Autoscroll
slow
fast
+/-
esc
set tempo
stop
Author
Part 1:

E|--8-------5--6--5--6--5---------------------------------------|
B|-----6/8-----------------5--6--8--6--5--------6-----5---------|
G|----------------------------------------8--9-----8------------|
D|-------------------------------------------------------10--8--|
A|--------------------------------------------------------------|
E|--------------------------------------------------------------| x2
                                          .  .     .
Part 2 follows Part 1 immediately after the second time Part 1 is played.

Part 2:

E|--------------5--8--6--4--5-----5--6--8/10--8--------|
B|-----------6-----------------6-----------------------|
G|--9--10\0--------------------------------------5--8--|
D|-----------------------------------------------------|
A|-----------------------------------------------------|
E|-----------------------------------------------------|

            
            
Suggest correction
Creating personal tab
Creating personal tab
You can edit any tab online and save it as your Personal.

You can edit, replace or remove any tab part or add personal notes – all changes will be seen only by you.

Personal tabs can be accessed anytime from any device, even offline.
Learn more »
Give kudos to tab author, rate the tab!
1 2 3 4 5
comments
print report bad tab
3 comments total.
+2 reply
amg12 16 Jul 22, 2015 01:41 PM

It's so close!! in Part 2, 7th fret E string should be a 6.

+1 reply
DailyPeep 43 Aug 04, 2015 05:18 AM

My mistake you are absolutely correct, must have been a typo.

0 reply
clark.morgan 10 Sep 09, 2017 05:42 PM

Sat down this afternoon to work this out and got that 1st bit exactly as you have it. The drop was giving me trouble though for some reason and this is the only tab that made sense, so thanks for this.

guest
You may want to rate the tab now too:
select rating
Wanna post a correction for this tab? Suggest correction