Oops, an error
Loading. Please wait.

Stash intro tab

version 1
version 1

Intro

Whole song

Interactive

by Phish
325 views 1 this week
no commentswrite comment
1 2 3 4 5
2 more votes to show rating
add to favorites
×
Save as Personal and add changes to this tab that will be seen only by you. Learn more ›
×
You can save this tab as Personal to edit and correct it or add notes. All changes will be seen only by you. Learn more »
launch autoscroll
font size
0
reset
how to read this tab
guitar tuner
backing track
0:00
0:00
edit
Autoscroll
slow
fast
+/-
esc
set tempo
stop
Difficulty
Trey uses some unusual fingerings that feel uncomfortable but really give these riffs
unique sound, which really caught my ear the first time I heard this song.  So tasty!
Focus on tone and precise, popping rhythm plus Ross compressor.

To get these fingerings, I went by the Live DVD, Walnut Creek 7/22/1997, which
has some nice closeups of Trey's hands.
https://www.youtube.com/watch?v=kaBljsb6oJQ
Enjoy, -Kive


E--------------------------------------------10\--------------------------------------------|
B---------------9--------------------11-9/10------------------------------------------------|
G-------9-10-12---12-10-9-------9-12--------------------------------------------------------|
D---/12-------------------12\11-------------------------------------------------------------|
A-------------------------------------------------------------------------------------------|
E-------------------------------------------------------------------------------------------|


E------------------------------------------------------10-----------------------------------|
B-----------------------------------------------9-/10--------10-----------------------------|
G------------------------9----10----------12--------------10----10-12-10--------------------|
D------12----------12------------------------11---------------------------------------------|
A--/12----12\11/12----12---12----12\11/12---------------------------------------------------|
E-------------------------------------------------------------------------------------------|


E------------------------------------------------------10-----------------------------------|
B-----------------------------------------------9-/10--------10-----------------------------|
G------------------------9----10----------12--------------10----10----12----10--------------|
D------12----------12------------------------11--------------------12----12----12-----------|
A--/12----12\11/12----12---12----12\11/12---------------------------------------------------|
E-------------------------------------------------------------------------------------------|


E--------10-12-13-12-10\9-------------------|
B--10-12------------------11----9-10--------|
G----------------------------12-------------|
D------------------------------------12-----|
A-------------------------------------------|
E-------------------------------------------|


E-----12-13-12-10\9------------10--|
B-------------------11----9-10-----|
G----------------------12----------|
D----------------------------------|
A----------------------------------|
E----------------------------------|


E-----12-13-12-10\9----------------|
B-------------------11----9-10-----|
G----------------------12----------|
D------------------------------12--|
A----------------------------------|
E----------------------------------|


E-------10-----------------------------------|
B---/10-------10-----------------------------|
G----------10----10----12----10--------------|
D-------------------12----12----12-----------|
A--------------------------------------------|
E--------------------------------------------|


E--------------------------------------------------|
B------------------------10----------9-10----------|
G-----------9-12-10-9-10----12-11-12---------------|
D--12-11-11----------------------------------------|
A--------------------------------------------------|
E--------------------------------------------------|


E--------------------------------------------------|
B------------------------10------------------------|
G-----------9-12-10-9-10----12-11-10-9-------------|
D--12-11-11----------------------------------------|
A--------------------------------------------------|
E--------------------------------------------------|


E---------------------------------------------------------------------|
B---/11-10-9-8-/10-9-8-6\5-8p5-----/6-----/5--------------------------|
G------------------------------6-------------6------------------------|
D--------------------------------7----8\7------7----------------------|
A------------------------------------------------7-6-5-4--------------|
E---------------------------------------------------------------------|


E----------------------------6-----------------------------|
B--------------------8-----8-------------------------------|
G------------6---6-9---6-9---------------------------------|
D--------5-8---8-------------------------------------------|
A----4-7---------------------------------------------------|
E--6-------------------------------------------------------|

            
            
Suggest correction
Creating personal tab
Creating personal tab
You can edit any tab online and save it as your Personal.

You can edit, replace or remove any tab part or add personal notes – all changes will be seen only by you.

Personal tabs can be accessed anytime from any device, even offline.
Learn more »
Give kudos to tab author, rate the tab!
1 2 3 4 5
comments
print report bad tab
guest
Wanna post a correction for this tab? Suggest correction