Oops, an error
Loading. Please wait.

Copa Rota tab

27 views 1 this week
no commentswrite comment
1 2 3 4 5
3 more votes to show rating
add to favorites
×
Save as Personal and add changes to this tab that will be seen only by you. Learn more ›
×
You can save this tab as Personal to edit and correct it or add notes. All changes will be seen only by you. Learn more »
launch autoscroll
font size
0
reset
how to read this tab
guitar tuner
edit
Autoscroll
slow
fast
+/-
esc
set tempo
stop
Intro Para Guitarra (By Froz23)


       Dm      Gm          C                 F        Dm
1 --------------6--5-3----------------------5-3--------
2 3-5-6-5-3-5-6--------6-5------3-5-3---3-5-----6-5-3--
3 ----------------------------5-------5----------------
4 -----------------------------------------------------
5 -----------------------------------------------------
6 -----------------------------------------------------

                Gm       A  A          Dm
1 --------------6--3-6-3-5-|5-3--------10---10---10--10|
2 3-5-6-5-3-5-6------------|----6-5-3-----7----7----7--|
3 -------------------------|------------x2-------------|
4 -----------------------------------------------------
5 -----------------------------------------------------
6 -----------------------------------------------------

  A                   Dm ..SI me siento
1 5-5-8-3-6---5---3------------------------------------
2 ----------6---5---3----------------------------------
3 -----------------------------------------------------
4 -----------------------------------------------------
5 -----------------------------------------------------
6 -----------------------------------------------------


Dm
Si me siento en este bar

es porque quiero olvidar
                   A
que la ame con ilusion


es por eso que al tomar

en cada copa se va
                Dm
parte de mi corazon


si la cruzan por ahi
                     D
no le digan que yo aqui
                Gm
fumo por mi soledad


                  Dm
diganle que soy feliz
                     A
que a mi nunca me va mal
                     Dm    D
que hoy me pude rescatar


Gm
mozo,
             Dm
sirvame otra copa
              A
que esta risa loca
             Dm   D
hoy quiero borrar


Gm
y a ella
             Dm
que se creyo diosa
            A
juro por mi vida
             Dm
la voy a olvidar

Intro

Repite todo de nuevo

Esta perfecta, una improvisacion de Pull Offs y Hammers On en
la intro la mejorarian bastante, aun asi, puse la original.
Cualquier duda a zekta_frozh3nt@

            
            
Suggest correction
Creating personal tab
Creating personal tab
You can edit any tab online and save it as your Personal.

You can edit, replace or remove any tab part or add personal notes – all changes will be seen only by you.

Personal tabs can be accessed anytime from any device, even offline.
Learn more »
Give kudos to tab author, rate the tab!
1 2 3 4 5
comments
print report bad tab
guest
Wanna post a correction for this tab? Suggest correction