Oops, an error
Loading. Please wait.

El Tano Pastita tab

version 1
version 1

Whole song

Interactive

77 views 3 this week
no commentswrite comment
1 2 3 4 5
3 more votes to show rating
add to favorites
×
Save as Personal and add changes to this tab that will be seen only by you. Learn more ›
×
You can save this tab as Personal to edit and correct it or add notes. All changes will be seen only by you. Learn more »
launch autoscroll
font size
0
reset
how to read this tab
guitar tuner
edit
Autoscroll
slow
fast
+/-
esc
set tempo
stop
Estos punteos los saque de la tablatura de el tano pastita, para teclado
y lo pase a guitarra, no son muy dificiles de ubicar, los cortitos van al
final de las frases.

////Cortitos////

e|----11----18----
B|-13----13----13-

e|----10-11-
B|-13-------

e|---------
B|-13-11-9-


////Medio////

e|------11-10----------10-13-11-10-------
B|-8-13-------13-8-8-8-------------8-8---

e|------11-10----------13-------13-15-15-
B|-8-13-------13-8-9-8----8-9-8----------

(X2)

////Solo////

e|-20-20-20-15-15-15-11-11-11--------------------11------13-11-10-
B|----------------------------13-13-13-8-8-8--13----13-8----------

e|-19-19-19-15-15-15-10-10-10--------------------10------15-13-11
B|----------------------------12-12-12-8-8-8--12----12-8---------

(X2)

            
            
Suggest correction
Creating personal tab
Creating personal tab
You can edit any tab online and save it as your Personal.

You can edit, replace or remove any tab part or add personal notes – all changes will be seen only by you.

Personal tabs can be accessed anytime from any device, even offline.
Learn more »
Give kudos to tab author, rate the tab!
1 2 3 4 5
comments
print report bad tab
guest
Wanna post a correction for this tab? Suggest correction