Oops, an error
Loading. Please wait.

Grace Kelly With Wings tab

version 2
version 2

Whole song

by Piebald
145 views 3 this week
no commentswrite comment
1 2 3 4 5
3 more votes to show rating
add to favorites
×
Save as Personal and add changes to this tab that will be seen only by you. Learn more ›
×
You can save this tab as Personal to edit and correct it or add notes. All changes will be seen only by you. Learn more »
launch autoscroll
font size
0
reset
how to read this tab
guitar tuner
edit
Autoscroll
slow
fast
+/-
esc
set tempo
stop
Author
E|----------------------------------------------------------------
B|------------12---------------12---------------------------------
G|------------------------------------12--12--11--11--9--9--7--7--
D|--9--10------------9--10----------------------------------------  x4
A|--0--0-------------0--0-------------10--10--9---9---7--7--5--5--
E|----------------------------------------------------------------

E|----------------------------------------------------------------------------------
B|----------------------------------------------------------------------------------
G|--12--12--11--11--9--9--7--7--12--12--11--11--9--9--7--7--6--6--6--6--6--6--6--6--
D|----------------------------------------------------------------------------------
A|--10--10--9---9---7--7--5--5--10--10--9---9---7--7--5--5--4--4--4--4--4--4--4--4--
E|----------------------------------------------------------------------------------


E|----------------------------------------------------------
B|----------------------------------------------------------
G|--12--12--14--14--9--9--7--7--12--12--14--14--9--9--7--7--
D|----------------------------------------------------------
A|--10--10--12--12--7--7--5--5--10--10--12--12--7--7--5--5--
E|----------------------------------------------------------

E|------------------------------------------------------
B|------------------------------------------------------
G|--12--12--11--11--9--9--7--7--6--6--6--6--6--6--6--6--
D|------------------------------------------------------
A|--10--10--9---9---7--7--5--5--4--4--4--4--4--4--4--4--
E|------------------------------------------------------

E|----------------------------------------------------------
B|----------------------------------------------------------
G|--12--12--14--14--9--9--7--7--12--12--14--14--9--9--7--7--
D|----------------------------------------------------------
A|--10--10--12--12--7--7--5--5--10--10--12--12--7--7--5--5--
E|----------------------------------------------------------

E|------------------------------------------------------
B|------------------------------------------------------
G|--12--12--11--11--9--9--7--7--6--6--6--6--6--6--6--6--
D|------------------------------------------------------
A|--10--10--9---9---7--7--5--5--4--4--4--4--4--4--4--4--
E|------------------------------------------------------

E|----------------------------------------------------------
B|----------------------------------------------------------
G|--12--12--14--14--9--9--7--7--12--12--11--11--9--9--7--7--
D|----------------------------------------------------------
A|--10--10--12--12--7--7--5--5--10--10--9---9---7--7--5--5--
E|----------------------------------------------------------

E|------------------------------------------------------
B|------------------------------------------------------
G|--12--12--11--11--9--9--7--7--6--6--6--6--6--6--6--6--
D|------------------------------------------------------
A|--10--10--9---9---7--7--5--5--4--4--4--4--4--4--4--4--
E|------------------------------------------------------

E|-----------10--------------10------------------------------------
B|--------8---------------8----------------------------------------
G|--7--9------------7--9------------12--12--11--11--9--9--7--7--7--
D|-----------------------------------------------------------------  x4
A|----------------------------------10--10--9---9---7--7--5--5--5--
E|-----------------------------------------------------------------

E|--10--------10--------10--------------------------------------------------------
B|--8---------8---------8---------------------------------------------------------
G|--9---------9---------9---------------------------------------------------------
D|--7---------7---------7---------------------------------10--10--10--10--10--10--  x4
A|--0---------0---------0---------------------------------------------------------
E|--------------------------------8--8--8--8--8--8--8--8--8---8---8---8---8---8---

E|--------------------------------------------------------------------------------
B|--------------------------------------------------------------------------------
G|--------------------------------------------------------------------------------
D|--------------5--------------------------5--------------------------5-----------
A|--------5--7-----7--5--4-----------5--7-----7--5--4-----------5--7-----7--5--4--
E|--7--7-----------------------7--7-----------------------7--7--------------------

E|--------------------------------------------------------------------------------
B|--------------------------------------------------------------------------------
G|--------------------------------------------------------------------------------
D|--------------5--7--9--7-----------------5--------------------------5-----------
A|--------5--7-----------------------5--7-----7--5--4-----------5--7-----7--5--4--
E|--7--7-----------------------7--7-----------------------7--7--------------------


E|--------------------------------------------------------------------------------
B|--------------------------------------------------------------------------------
G|--------------------------------------------------------------------------------
D|--------------5--------------------------5--------------9-----------5-----------
A|--------5--7-----7--5--4-----------5--7-----7--5--4-----------5--7-----7--5--4--
E|--7--7-----------------------7--7-----------------------7-----------------------

E|---------------------------------
B|---------------------------------
G|--------7--9--9--11--11--11--11--
D|--9------------------------------ x8
A|--------5--7--7--9---9---9---9---
E|--7------------------------------

E|--------------------------------------------------
B|--------------------------------------------------
G|--------------------------------------------------
D|--------------------------------------------------  x2
A|--7--------6--------5--------4--------3--------2--
E|--5--------4--------3--------2--------1--------0--


Guitar 1:
E|--------------------------------------------------------------------------------------
B|--------------------------------------------------------------------------------------
G|-----------------------7--------------------9-----------------------------------------
D|--7--------------------7--------------------9--------------------7--------------------
A|--7--------------------5--5--5--5--5--5--5--7--7--7--7--7--7--7--7--------------------
E|--5--5--5--5--5--5--5--------------------------------------------5--5--5--5--5--5--5--

Guitar 2:
E|--------------------------------------------------------------------------------------
B|--9b10--9b10--9b10--9b10--9b10--9b10--9b10--9b10--9b10--9b10--9b10--9b10--9b10--9b10--
G|--------------------------------------------------------------------------------------
D|--------------------------------------------------------------------------------------
A|--------------------------------------------------------------------------------------
E|--------------------------------------------------------------------------------------


E|---------------------------------------------------------------
B|---------------------------------------------------------------
G|--7--------------------9--------------------2------------------
D|--7--------------------9--------------------2------------------
A|--5--5--5--5--5--5--5--7--7--7--7--7--7--7--0--0--4p0--5p0--0--
E|---------------------------------------------------------------


Guitar 1:
E|----------------------------------------------------------------------------------------------
B|----------------------------------------------------------------------------------------------
G|----------------------------------------------------------------------------------------------
D|----------------------------------------------------------------------------------------------
A|--0--0--4p0--5p0--0--0--0--4p0--5p0--0--0--0--4p0--5p0--0--0--0--4p0--5p0--0--0--0--4p0--5p0--
E|----------------------------------------------------------------------------------------------

Guitar 2:
E|-----------------------------------------------------------------------------------------------
B|-----------------------------------------------------------------------------------------------
G|--------------------7--------7--7--------------------------------------------------------------
D|--------------------7--------7--7--------------------------7--------7--7-----------------------
A|--------------------5--------5--5--------------------------7--------7--7-----------------------
E|-----------------------------------------------------------5--------5--5-----------------------


Guitar 1:
E|-------------------------------------------
B|-------------------------------------------
G|-------------------------------------------
D|-------------------------------------------
A|--0--0--0--4p0--5p0--0--0--0--4p0--5p0--0--
E|-------------------------------------------

Guitar 2:
E|-----------------------------10p9------10--
B|-----------------------------------10------
G|-----7--------7--7-------------------------
D|-----7--------7--7-------------------------
A|-----5--------5--5-------------------------
E|-------------------------------------------


E|----------------------------------------
B|----------------------------------------
G|----------------------------------------
D|----------------------------------------  x4
A|--0--0--0--4p0--5p0--0--0--0--4p0--5p0--
E|----------------------------------------

E|--------------------------------------------------------10p9------10--
B|--------------------------------------------------------------10------
G|-----------------7--7--7-----------------------7--7--7----------------
D|--7--7--7--------7--7--7--------7--7--7--------7--7--7----------------
A|--7--7--7--------5--5--5--------7--7--7--------5--5--5----------------
E|--5--5--5-----------------------5--5--5-------------------------------

E|--------------------------------------------------------
B|--------------------------------------------------------
G|-----------------7--7--7--------------------------------
D|--7--7--7--------7--7--7--------7--7--7--------5--------
A|--7--7--7--------5--5--5--------7--7--7--------5--------
E|--5--5--5-----------------------5--5--5--------3--------

E|---------------------------------------------------------------------------------------------
B|-------------15-------------------15--15-----------------15----------15----------15----------
G|-------------12-------------------12------12-----------------12----------12----------12------
D|--9--10--12--14--------9--10--12--14----------14-----14----------14----------14----------14--
A|---------------------------------------------------------------------------------------------
E|---------------------------------------------------------------------------------------------


E|--------------------------------------------------------------------------
B|--15----------15----------15----------15----------15----------15----------
G|------12----------12----------12----------12----------12----------12------
D|----------14----------14----------14----------14----------14----------14--
A|--------------------------------------------------------------------------
E|--------------------------------------------------------------------------

E|----------------------------------------------------------
B|----------------------------------------------------------
G|--12--12--11--11--9--9--7--7--12--12--11--11--9--9--7--7--
D|----------------------------------------------------------
A|--10--10--9---9---7--7--5--5--10--10--9---9---7--7--5--5--
E|----------------------------------------------------------

E|------------------------------------------------------
B|------------------------------------------------------
G|--12--12--14--14--9--9--7--7--6--6--6--6--6--6--6--6--
D|------------------------------------------------------
A|--10--10--12--12--7--7--5--5--4--4--4--4--4--4--4--4--
E|------------------------------------------------------

E|----------------------------------------------------------
B|----------------------------------------------------------
G|--12--12--11--11--9--9--7--7--12--12--11--11--9--9--7--7--
D|----------------------------------------------------------
A|--10--10--9---9---7--7--5--5--10--10--9---9---7--7--5--5--
E|----------------------------------------------------------

E|----------------------------------------------------------------------------
B|----------------------------------------------------------------------------
G|--12--12--11--11--9--9--7--7--12--12--11--11--9--9--------12--11--11--9--9--
D|----------------------------------------------------------------------------
A|--10--10--9---9---7--7--5--5--10--10--9---9---7--7--------10--9---9---7--7--
E|----------------------------------------------------------------------------

***********************************
| p   Pull-off
| b   Bend

***********************************


            
            
Suggest correction
Creating personal tab
Creating personal tab
You can edit any tab online and save it as your Personal.

You can edit, replace or remove any tab part or add personal notes – all changes will be seen only by you.

Personal tabs can be accessed anytime from any device, even offline.
Learn more »
Give kudos to tab author, rate the tab!
1 2 3 4 5
comments
print report bad tab
guest
You may want to rate the tab now too:
select rating
Wanna post a correction for this tab? Suggest correction