Oops, an error
Loading. Please wait.

El Mar De Sangre chords

by Pier
39 views 1 this week
no commentswrite comment
1 2 3 4 5
3 more votes to show rating
add to favorites
×
Save as Personal and add changes to this tab that will be seen only by you. Learn more ›
×
You can save this tab as Personal to edit and correct it or add notes. All changes will be seen only by you. Learn more »
launch autoscroll
font size
0
reset
transpose
0
reset
simplify chords
display chords
guitar tuner
edit
Autoscroll
slow
fast
+/-
esc
set tempo
stop
Strumming
There is no strumming pattern for this song yet. and get +5 IQ
Intro:

  riff:                          esto va sobre el riff en
   A5                            algunas partes de la cancion:
E|--------------|                |-------------------------|
B|--------------|                |-------------------------|
G|--------------|                |-------------------------|   X4
D|--------------|                |-------------------------|
A|--------------|                |--------------10-10-12-12|
E|-555555555555-|                |--12-12-10-10------------|

F  G  A

  riff
Las polleras condimentan la derrota
tan ingenuas con la gracia del amor

 F5                G5                     A5
Toca fondo la pereza del maldito picaflor

  riff
La lave al paraíso brilla por su ausencia
divanes acaramelados abrazan su soledad.

 F5                       G5                        A5
A la luz del mar de sangre, resignado por el hambre

 riff
Va luchando con patente de potente
saltarín y escurridizo el mimado capitán

 F5                G5                    A5
Cómo va desenfrenado el torito malcriado

 C5                G5
Su cara desfigurada lava con paciencia
 D5                       A5
A la luz del mar de sangre nace su conciencia
 A5                G5
Su cara desfigurada lava con paciencia
 D5                       A5
A la luz del mar de sangre nace su conciencia

 riff                                        fill 1
El talento y el mar de sangre lo cuestionarán
 riff                              fill 2
sus locuras inmaduras no razonarán

 F5              fill 3
Sabe todo, sabe nada
 G5              fill 4
y se queda sin carnada


Su cara desfigurada lava con paciencia
A la luz del mar de sangre nace su conciencia
Su cara desfigurada lava con paciencia
A la luz del mar de sangre nace su conciencia

solo:

E|-12-10---10---------------------12-10---10-------------------------------------------|
B|-------13---13-10---10-13-10--13------13---13-10---10-13-10----10-13-10---10-13-10-10|
G|------------------12---------9------------------12----------12----------12-----------|
D|-------------------------------------------------------------------------------------|
A|-------------------------------------------------------------------------------------|
E|-------------------------------------------------------------------------------------|

E|------------------------10------------------------------------------------------------|
B|-------10-13-13----10-12-------10-10-------------10-10-------------10-10-10-13-10---10|
G|-10-12----------12---------9-12------9-9-9-9-9-12------9-9-9-9-9-12---------------12--|
D|--------------------------------------------------------------------------------------|
A|--------------------------------------------------------------------------------------|
E| -------------------------------------------------------------------------------------|

riff

fin.

fill 1:                Fill 2:                     Fill 3:             Fill 4

E|--------10-12|       E|-12-13-10------15-12      E|------------|     E|----------|
B|---10-13-----|       B|----------12--------      B|-13-12-10---|     B|-----13-13|
G|-12----------|       G|-------------12-----      G|----------12|     G|-9-12-----|


BUENO ESTA ES MI PRIMER COLABORACION CUALQUIER DUDA ESCRIBAN A GONZA_AVERNA@
 AGUANTE PIER!!!!!

            
            
Suggest correction
Creating personal tab
Creating personal tab
You can edit any tab online and save it as your Personal.

You can edit, replace or remove any tab part or add personal notes – all changes will be seen only by you.

Personal tabs can be accessed anytime from any device, even offline.
Learn more »
Give kudos to tab author, rate the tab!
1 2 3 4 5
comments
print report bad tab
guest
Wanna post a correction for this tab? Suggest correction