Oops, an error
Loading. Please wait.

Bulletproof Love tab

version 5
version 5

Whole song

  • Mine is a clear version and in standard tuning, wh... Show more
  • The intro and chorus were mainly the huge differen... Show more

Interactive

2,264 views 24 this week
1 commentread comment
1 2 3 4 5
x 6
add to favorites
×
Save as Personal and add changes to this tab that will be seen only by you. Learn more ›
×
You can save this tab as Personal to edit and correct it or add notes. All changes will be seen only by you. Learn more »
launch autoscroll
font size
0
reset
how to read this tab
guitar tuner
edit
Autoscroll
slow
fast
+/-
esc
set tempo
stop
-------------------------------------------------------------------------------
                             Bulletproof Love - Pierce The Veil
-------------------------------------------------------------------------------

Tuning: Standard
Capo 2
Relative to capo

Verse 1
e|-------4---------------4---------------4--------------4---------|
B|-----5---7-5-4-5-----5---7-5-4-5-----5---7-5-4-5----5---7-5-4-5-|
G|---4---------------4---------------4--------------4-------------|
D|----------------------------------------------------------------|
A|-7---------------7---------------7---------------7--------------|
E|----------------------------------------------------------------|
   * * *           * * *           * * *           * * *   
e|-------4---------------4---------------4---------------5-4-------|
B|-----5---7-5-4-5-----5---7-5-4-5-----5---7-5-4-5-----5-----7-5-4-|
G|---4---------------4-------------4-4-------------4-4-------------|
D|-7---------------7-----------------------------------------------|Repeat
A|-----------------------------------------------------------------|
E|-----------------------------------------------------------------|
   * * *           * * *           * * *           * * *  
e|-5-5-4-4-------------4-4----------------------------|
B|---------7-7-5-5-7-7-----7-7-5-5-4-4-5-5-4-4--------|
G|---------------------------------------------6-6-4~-|
D|----------------------------------------------------|
A|----------------------------------------------------|
E|----------------------------------------------------|

Pre Chorus
e|-----------------------------------------------------------------|
B|-----------------------------------------------------------------|
G|-----8-------8-------8-------8-------8-------8-------8-------8---|
D|---9---9---9---9---9---9---9---9---9---9---9---9---9---9---9---9-|
A|-7-------7-------7-------7-------7-------7-------7-------7-------|
E|-----------------------------------------------------------------|

Chorus
e|-----------------------------------------------------------------|
B|-----------------------------------------------------------------|
G|-----------------------------------------------------------------|
D|-------------------------4-4-4-4---------------------------------|Repeat
A|-7-7-7-7-------------------------6-6-6-6-----------------6-6-6-6-|
E|---------7-7-7-7-4-4-4-4-----------------7-7-7-7-4-4-4-4---------|

Verse 2
e|-------4---------------4---------------4--------------4---------|
B|-----5---7-5-4-5-----5---7-5-4-5-----5---7-5-4-5----5---7-5-4-5-|
G|---4---------------4---------------4--------------4-------------|
D|----------------------------------------------------------------|
A|-7---------------7---------------7---------------7--------------|
E|----------------------------------------------------------------|
   * * *           * * *           * * *           * * *   
e|-------4---------------4---------------4---------------5-4-------|
B|-----5---7-5-4-5-----5---7-5-4-5-----5---7-5-4-5-----5-----7-5-4-|
G|---4---------------4-------------4-4-------------4-4-------------|
D|-7---------------7-----------------------------------------------|
A|-----------------------------------------------------------------|
E|-----------------------------------------------------------------|
   * * *           * * *           * * *           * * *  
e|-------4---------------4---------------4--------------4---------|
B|-----5---7-5-4-5-----5---7-5-4-5-----5---7-5-4-5----5---7-5-4-5-|
G|---4---------------4---------------4--------------4-------------|
D|----------------------------------------------------------------|
A|-7---------------7---------------7---------------7--------------|
E|----------------------------------------------------------------|
   * * *           * * *           * * *           * * *   
e|-------4---------------4---------------4-----------|
B|-----5---7-5-4-5-----5---7-5-4-5-----5---7-5-4-5---|
G|---4---------------4-------------4-4-------------4-|
D|-7---------------7---------------------------------|
A|---------------------------------------------------|
E|---------------------------------------------------|
   * * *           * * *           * * *             
Chorus
e|-----------------------------------------------------------------|
B|-----------------------------------------------------------------|
G|-----------------------------------------------------------------|
D|-------------------------4-4-4-4---------------------------------|Repeat
A|-7-7-7-7-------------------------6-6-6-6-----------------6-6-6-6-|
E|---------7-7-7-7-4-4-4-4-----------------7-7-7-7-4-4-4-4---------|

Bridge
e|-----7p0-5p0-4p0-5p0-4p0-----4p0-|
B|-5p0---------------------7p0-----|
G|---------------------------------|
D|---------------------------------|x3
A|---------------------------------|
E|---------------------------------|

e|-5p0-4p0-----4p0-5p0-4p0-----4p0-|
B|---------7p0-------------7p0-----|
G|---------------------------------|
D|---------------------------------|Repeat
A|---------------------------------|
E|---------------------------------|


e|-----------------|-------12----------12----------11----------11----|
B|---------------7-|----12----12----12----12----12----12----12----12-|
G|---------6-8-9---|-13----------13----------13----------13----------|
D|---6-7-9---------|-------------------------------------------------|
A|-9---------------|-------------------------------------------------|
E|-----------------|-------------------------------------------------|

e|------------------------------------------------------------------|
B|------------------------------------------------------------------|
G|------------------------------------------------------------------|
D|-----6---7-6---6---6-----7-6------------------------------------6-|
A|-7-9---7-----9---6---9-6-----9-7---9h11-9---7-9-7-6---7h9-6-7-9---|
E|---------------------------------9--------9---------7-------------|

e|---------------------------------------------------------|
B|---------------------------------------------------------|
G|---------------------------------------------------------|
D|-----6---9-6---6---6-----6-------------------------------|
A|-7-9---7-----9---6---9-7---9-7-6---9h11-9---9-11-9-------|
E|---------------------------------9--------9--------9~-8~-|

e|----------12-----11-----9-----7----4-----|-----12-----11-----9-----7----/12~-11~-|
B|-----8-/9----9\7----7\5---5\4--4\2---2\1-|-/9-----9\7----7\5---5\4---4\----------|
G|---6-------------------------------------|---------------------------------------|
D|-6---------------------------------------|---------------------------------------|
A|-----------------------------------------|---------------------------------------|
E|-----------------------------------------|---------------------------------------|

e|----12-----11---9-----7----4-----|------|
B|-/9----9\7--7\5---5\4--4\2---2\1-|-1~-4~|
G|---------------------------------|------|
D|---------------------------------|------|
A|---------------------------------|------|
E|---------------------------------|------|

e|----12-----11-----9----7-----4-----|-----12-----11-----9-----7----/12~-11~-|
B|-/9----9\7----7\5---5\4--4\2---2\1-|-/9-----9\7----7\5---5\4---4\----------|
G|-----------------------------------|---------------------------------------|
D|-----------------------------------|---------------------------------------|
A|-----------------------------------|---------------------------------------|
E|-----------------------------------|---------------------------------------|

e|----12-----11-----9-----7-----4-----|----12-----11-----9-----7-----4-----|
B|-/9----9\7----7\5---5\4---4\2---2\1-|-/9----9\7----7\5---5\4---4\2---2\1-|
G|------------------------------------|------------------------------------|
D|------------------------------------|------------------------------------|
A|------------------------------------|------------------------------------|
E|------------------------------------|------------------------------------|

e|-7-----7-----7-----7-----7-------|-----------|
B|---5\4---5\4---5\4---5\4---5\4/5-|-9~---9~---|
G|---------------------------------|-9~---8~---|
D|---------------------------------|-9~---9~---|
A|---------------------------------|-----------|
E|---------------------------------|-----------|


Chorus
e|-----------------------------------------------------------------|
B|-----------------------------------------------------------------|
G|-----------------------------------------------------------------|
D|-------------------------4-4-4-4---------------------------------|Repeat
A|-7-7-7-7-------------------------6-6-6-6-----------------6-6-6-6-|
E|---------7-7-7-7-4-4-4-4-----------------7-7-7-7-4-4-4-4---------|

Bridge
e|-----7p0-5p0-4p0-5p0-4p0-----4p0-|
B|-5p0---------------------7p0-----|
G|---------------------------------|
D|---------------------------------|x3
A|---------------------------------|
E|---------------------------------|

e|-5p0-4p0-----4p0-5p0-4p0-----4p0-|
B|---------7p0-------------7p0-----|
G|---------------------------------|
D|---------------------------------|Repeat
A|---------------------------------|
E|---------------------------------|

e|------------------|
B|---------------7~-|
G|---------6-8-9----|
D|---6-7-9----------|x2
A|-9----------------|
E|------------------|

Outro
e|----------------------------------|   |-----|
B|----------------------------------|   |-----|
G|-9-9-9--9--9--9---8-8-8-8-8-8-8-8-|   |-9-9-|
D|-9-9-9--11-11-11--8-8-8-8-8-8-8-8-|x4 |-9-9-|
A|-7-7-7--11-11-11--6-6-6-6-6-6-6-6-|   |-7-7-|
E|----------------------------------|   |-----|




************************************
| *   palm mute
| /   slide up
| \   slide down
| h   hammer-on
| p   pull-off
| ~   vibrato
| +   harmonic
| x   Mute note
| b   Bend
| pb  Pre-bend
| br  Bend release
| pbr Pre-bend release
| brb Bend release bend

************************************

            
            
Suggest correction
Creating personal tab
Creating personal tab
You can edit any tab online and save it as your Personal.

You can edit, replace or remove any tab part or add personal notes – all changes will be seen only by you.

Personal tabs can be accessed anytime from any device, even offline.
Learn more »
comments
print report bad tab
1 comment total.
0 reply
PierceTheKnight 367 Dec 14, 2016 11:11 PM

The outro is perfect. The rest of the tab sounds as if you tuned it a whole step down though.

guest
You may want to rate the tab now too:
select rating
Wanna post a correction for this tab? Suggest correction