Oops, an error
Loading. Please wait.

Hold On Till May bass

version 1
version 1

Whole song

Interactive

9,867 views 18 this week
5 commentsread comments
1 2 3 4 5
x 9
add to favorites
×
Save as Personal and add changes to this tab that will be seen only by you. Learn more ›
×
You can save this tab as Personal to edit and correct it or add notes. All changes will be seen only by you. Learn more »
launch autoscroll
font size
0
reset
guitar tuner
edit
Autoscroll
slow
fast
+/-
esc
set tempo
stop
Tuning : D, A, D, G.

Tabbed by ApothakarY

-----"She sits up high..."
G|----------------------------------------------------------------|
D|----------------------------------------------------------------|
A|----------------------------------------------------------------|
D|-----6-6--6~~~~~6-6--6~~~~~~~~5-5--5~~~~~5-5--5~~~~~~~~---------| (x2)

-Break-
--"As we own this night..."
G|----------------------------------------------------------------|
D|----------------------------------------------------------------|
A|----------------------------------------------------------------|
D|6-6-6-6-6-6-6-6-6-6-6-6-6-6-6-6-6-6-6-6-6-6-6-6-6-6-6-6-6-6-6-6-|

--Continues to this
G|----------------------------------------------------------------|
D|----------------------------------------------------------------|
A|----------------------------------------------------------------|
D|5-5-5-5-5-5-5-5-5-5-5-5-5-5-5-5-5-5-5-5-5-5-5-5-5-5-5-5-5-5-5-5-|



-Pause-
--"As the sun goes down..." (This part is the slide that comes in right as Vic starts 
singing again.)
G|------------|
D|------------|
A|------------|
D|----10/1----|

-Continues to this again.
G|----------------------------------------------------------------|
D|----------------------------------------------------------------|
A|----------------------------------------------------------------|
D|6-6-6-6-6-6-6-6-6-6-6-6-6-6-6-6-6-6-6-6-6-6-6-6-6-6-6-6-6-6-6-6-|

--And this again.
G|----------------------------------------------------------------|
D|----------------------------------------------------------------|
A|----------------------------------------------------------------|
D|5-5-5-5-5-5-5-5-5-5-5-5-5-5-5-5-5-5-5-5-5-5-5-5-5-5-5-5-5-5-5-5-|

--Repeats again but a little more different. (I had to smush this part together...) (And
theyre all 6, and the others are on fret 13, not fret 1 then 3)
G|---------------------------------------------------------|
D|---------------------------------------------------------|
A|---------------------------------------------------------|
D|66666666666/13-13-13-13-13-13-13-13-66666666666666666668-|

--Continues to this
G|----------------------------------------------------------------|
D|----------------------------------------------------------------|
A|----------------------------------------------------------------|
D|5-5-5-5-5-5-5-5-5-5-5-5-5-5-5-5-5-5-5-5-5-5-5-5-5-5-5-5-5-5-5-5-|

-Pause-
--Play this right after Vic says "3, 2, 1, Where did it go?"
G|----------------------------------------------------------------|
D|----------------------------------------------------------------|
A|----------------------------------------------------------------|
D|1~~~~~~~~~~1~~~~~~~~~~1/5-5~~~~~~~~~~5~~~~~~~~~~8-6~~~~~~~~~~---|

--Contiues to this.
G|-----------------------------------------------------------------|
D|-----------------------------------------------------------------|
A|-----------------------------------------------------------------|
D|-6~~~~~~~~~~5--3--1~~~-----12-9-1---12-9-1-----------------------|

--Repeats when Lindsey starts singing.
G|----------------------------------------------------------------|
D|----------------------------------------------------------------|
A|----------------------------------------------------------------|
D|1~~~~~~~~~~1~~~~~~~~~~1/5-5~~~~~~~~~~5~~~~~~~~~~8-6~~~~~~~~~~---|

--Contiues to this.
G|----------------------------------------------------------------|
D|----------------------------------------------------------------|
A|----------------------------------------------------------------|
D|1~~~~~~~~~~1~~~~~~~~~~1/5-5~~~~~~~~~~5~~~~~~~~~~8-6~~~~~~~~~~---|

--Contiues to this.
G|----------------------------------------------------------------|
D|----------------------------------------------------------------|
A|----------------------------------------------------------------|
D|-6~~~~~~~~~~5--3--1~~~-----12-9-1---12-9-1----------------------|

--Play this soon after Vic starts singing again.
--"And as the sun went down, we ended up on the ground..."
G|----------------------------------------------------------------|
D|----------------------------------------------------------------|
A|----------------------------------------------------------------|
D|6-6-6-6-6-6-6-6-6-6-6-6-6-6-6-6-6-6-6-6-6-6-6-6-6-6-6-6-6-6-6-6-|

--Continues to this
G|----------------------------------------------------------------|
D|----------------------------------------------------------------|
A|----------------------------------------------------------------|
D|5-5-5-5-5-5-5-5-5-5-5-5-5-5-5-5-5-5-5-5-5-5-5-5-5-5-5-5-5-5-5-5-|

--And then this.
G|----------------------------------------------------------------|
D|----------------------------------------------------------------|
A|----------------------------------------------------------------|
D|5-5-5-5-5-5-5-5-5-5-5-5-5-5-5-5-5-5-5-5-5-5-5-5-5-5-5-5-5-5-5-5-|

--Then this again.
G|----------------------------------------------------------------|
D|----------------------------------------------------------------|
A|----------------------------------------------------------------|
D|6-6-6-6-6-6-6-6-6-6-6-6-6-6-6-6-6-6-6-6-6-6-6-6-6-6-6-6-6-6-6-6-|

--"This love was out of control! Tell me, where did it go?"
G|-----------------------------------------------------------------|
D|-----------------------------------------------------------------|
A|-----------------------------------------------------------------|
D|-1~~~~~~~~1~~~~~~~~~12-9-----------------------------6~~~~~~~~~~-|

            
            
Suggest correction
Creating personal tab
Creating personal tab
You can edit any tab online and save it as your Personal.

You can edit, replace or remove any tab part or add personal notes – all changes will be seen only by you.

Personal tabs can be accessed anytime from any device, even offline.
Learn more »
comments
print report bad tab
5 comments total. Showing first comments.
0 reply
Jazz1002 45 Nov 04, 2013 01:04 PM

Great tab!

0 reply
sreynolds6388 10 Oct 24, 2014 06:25 AM

is the eight supposed to be there right at the end of the 6-13-6 pattern? otherwise great tab.

+1 reply
Nerdueweed 10 Apr 19, 2015 03:34 AM

"3..2..1.. Where did it go?"
G|------------------------------------------------------------------|
D|--------------------------------------------------------4-3------4|
A|------------------------------------------------------------------|
E|--2----2----2--4--6-------6-----9--7-------7---6-4-2--------2-----|

"And she said.."
G|------------------------------------------------------------------|
D|--------------------------------------------------------4-3------4|
A|------------------------------------------------------------------|
E|--2----2----2--4--6-------6-----9--7-------7---6-4-2--------2-----|

guest
You may want to rate the tab now too:
select rating
Wanna post a correction for this tab? Suggest correction