Oops, an error
Loading. Please wait.
We have an official King For A Day tab made by UG professional guitarists. Check out the tab »
×
23,618 views 42 this week
4 commentsread comments
1 2 3 4 5
x 8
add to favorites
×
Save as Personal and add changes to this tab that will be seen only by you. Learn more ›
×
You can save this tab as Personal to edit and correct it or add notes. All changes will be seen only by you. Learn more »
launch autoscroll
font size
0
reset
guitar tuner
edit
Autoscroll
slow
fast
+/-
esc
set tempo
stop
Author
Pierce The Veil - King For A Day

[Verse]
(0:09)
G|---------------------------------------------------------------|
D|---------------------------------------------------------------|
A|----------------------------0----------------------------------|
E|---0-0-0---0-0-0---4-4-4---4-4-4-------------------------------|

G|---------------------------------------------------------------|
D|---------------------------------------------------------------|
A|---------------------------------------------------------------|
E|-0-0-0-0-0-0-0-0-0-0-0-0-0-0-0-0-------------------------------|

G|---------------------------------------------------------------------|
D|---------------------------------------------------------------------|
A|--------------------------------4-4-4-4-4-4-4-4-4-4-4-4-4-4-4-4------|
E|-0-0-0-0-0-0-0-0-0-0-0-0-0-0-0-0-------------------------------------|

G|---------------------------------------------------------------|
D|---------------------------------------------------------------|
A|-16-16-16-16-16-16-16-16-16-16-16-16-16-16---------------------|
E|---------------------------------------------------------------|

[Bridge]
(Please, won’t you push me for the last time)
G|---------------------------------------------------------------|
D|---------------------------------------------------------------|
A|-1-1-1-1-1-1-1-1-1-1-1-1-1-1-1-1-1-1-1-1-1-1-1-1---------------|
E|---------------------------------------------------------------|

G|---------------------------------------------------------------|
D|---------------------------------------------------------------|
A|-0-0-0-0-0-0-0-0-0-0-0-0-12-12-12-12-12-12-12-12-12-10---------|
E|---------------------------------------------------------------|

G|------------------------3-3-2-2-0-0---2-2-0-0---0--------------|
D|-----------------------------------3-3-------3-3---------------|
A|-1-1-1-1-1-1-1-1-1-1-1-1---------------------------------------|
E|---------------------------------------------------------------|

G|---------------------------------------------------------------|
D|---------------------------------------------------------------|
A|-0-0-0-0-0-0-0-0-0-0-0-0-0-0-----------------------------------|
E|---------------------------------------------------------------|

[Chorus]
(You told me think about it, well I did)
G|---------------------------------------------------------------|
D|---------------------------------------------------------------|
A|---------------------------------------------------------------|
E|-0-0--0-0--0-0--0-0--0-0--0-0--0-0--0-0------------------------|

G|---------------------------------------------------------------|
D|---------------------------------------------------------------|
A|-1-1--1-1--1-1--1-1--1-1--1-1--1-1--1-1------------------------|
E|---------------------------------------------------------------|

G|---------------------------------------------------------------|
D|---------------------------------------------------------------|
A|---------------------------------------------------------------|
E|-5-5--5-5--5-5--5-5--5-5--5-5--5-5--5-5------------------------|

G|---------------------------------------------------------------|
D|---------------------------------------------------------------|
A|-0-0--0-0--0-0--0-0--0-0--0-0--0-0--0-0------------------------|
E|----------------------------------------0----------------------|

[Bridge]
G|---------------------------------------------------------------|
D|---------------------------------------------------------------|
A|----4-7--4-7--4-7--4-7--4-7--4-7--4----------------------------|
E|-0-0--------------------------------0--------------------------|

G|---------------------------------------------------------------|
D|---------------------------------------------------------------|
A|--4-7--4-7--4-7--4-7--4-7--4-7--4------------------------------|
E|-0-------------------------------0-----------------------------|

[Verse]
G|---------------------------------------------------------------|
D|---------------------------------------------------------------|
A|--5-8--5-8--5-8--5-8--5-8--5-8--5------------------------------|
E|-0-------------------------------0-----------------------------|

G|---------------------------------------------------------------|
D|---------------------------------------------------------------|
A|--5-8--5-8--5-8--5-8--5-8--5-8--5------------------------------|
E|-0-------------------------------0-----------------------------|

G|---------------------------------------------------------------|
D|---------------------------------------------------------------|
A|--4-7--4-7--4-7--4-7--4-7--4-7--4------------------------------|
E|-0-------------------------------0-----------------------------|

G|---------------------------------------------------------------|
D|---------------------------------------------------------------|
A|--4-7--4-7--4-7--4-7--4-7--4-7--4------------------------------|
E|-0-------------------------------0-----------------------------|

G|---------------------------------------------------------------|
D|---------------------------------------------------------------|
A|--5-8--5-8--5-8--5-8--5-8--5-8--5------------------------------|
E|-0-------------------------------0-----------------------------|

G|---------------------------------------------------------------|
D|---------------------------------------------------------------|
A|--5-8--5-8--5-8--5-8--5-8--5-8--5------------------------------|
E|-0-------------------------------0-----------------------------|

G|---------------------------------------------------------------|
D|---------------------------------------------------------------|
A|--4-7--4-7--4-7--4-7--4-7--4-7--4------------------------------|
E|-0-------------------------------0-----------------------------|

G|---------------------------------------------------------------|
D|---------------------------------------------------------------|
A|--4-7--4-7--4-7--4-7--4-7--4-7--4------------------------------|
E|-0-------------------------------0-----------------------------|


G|---------------------------------------------------------------|
D|---------------------------------------------------------------|
A|-1~------------------------------------------------------------|
E|---------------------------------------------------------------|

(Let’s scream, there’s nothing left)
G|---------------------------------------------------------------|
D|-------------------------3-3-2-2-0-0---2-2-0-0---0-------------|
A|-0-0--0-0-0--0-0-0--0-0-0-----------3-3-------3-3--------------|
E|---------------------------------------------------------------|

G|----------------------3-3-3-3-3-3-3-3-3-3-3-3------------------|
D|---------------------------------------------------------------|
A|-1-1-1-1-1-1-1-1-1-1-1-----------------------------------------|
E|---------------------------------------------------------------|

G|---------------------------------------------------------------|
D|---------------------------------------------------------------|
A|-0-0-0-0-0-0-0-0-0-0-0-0-0-0-0-0-------------------------------|
E|---------------------------------------------------------------|

G|---------------------------------------------------------------|
D|---------------------------------------------------------------|
A|-0-0-0-0-0-0-0-0-0-0-0-0-7-------------------------------------|
E|---------------------------------------------------------------|

[Chorus]
G|---------------------------------------------------------------|
D|---------------------------------------------------------------|
A|---------------------------------------------------------------|
E|-0-0--0-0--0-0--0-0--0-0--0-0--0-0--0-0------------------------|

G|---------------------------------------------------------------|
D|---------------------------------------------------------------|
A|-1-1--1-1--1-1--1-1--1-1--1-1--1-1--1-1------------------------|
E|---------------------------------------------------------------|

G|---------------------------------------------------------------|
D|---------------------------------------------------------------|
A|---------------------------------------------------------------|
E|-5-5--5-5--5-5--5-5--5-5--5-5--5-5--5-5------------------------|

G|-----------------------------------------------------------------|
D|-----------------------------------------------------------------|
A|-0-0--0-0--0-0--0-0--0-0--0-0--0-0--0-0--------------------------|
E|-----------------------------------------------------------------|


G|---------------------------------------------------------------|
D|---------------------------------------------------------------|
A|---------------------------------------------------------------|
E|-0-0--0-0--0-0--0-0--0-0--0-0--0-0--0-0------------------------|


G|---------------------------------------------------------------|
D|---------------------------------------------------------------|
A|-1-1--1-1--1-1--1-1--1-1--1-1--1-1--1-1------------------------|
E|---------------------------------------------------------------|

G|---------------------------------------------------------------|
D|---------------------------------------------------------------|
A|----------------------------------------0-0-0-0-0-0-0-0-0------|
E|-5-5--5-5--5-5--5-5--5-5--5-5--5-5--5-5------------------------|

 (We start a new revolution, now)
G|---------------------------------------------------------------|
D|---------------------------------------------------------------|
A|-0~------------------------------------------------------------|
E|---------------------------------------------------------------|

G|---------------------------------------------------------------|
D|---------------------------------------------------------------|
A|-0~------------------------------------------------------------|
E|---------------------------------------------------------------|

G|----------------------------------------------------------------|
D|----------------------------------------------------------------|
A|----------------------------------------------------------------|
E|-0-0-0-0-0-0-0-0-0-0-0-0-0-0-0-0-0-0-0-0-0-0-0-0-0-0-0-0-0-0-0-0|

G|----------------------------------------------------------------|
D|----------------------------------------------------------------|
A|----------------------------------------------------------------|
E|-6-6-6-6-6-6-6-6-6-6-6-6-6-6-6-6-6-6-6-6-6-6-6-6-6-6-6-6-6-6-6-6|

G|---------------------------------------------------------------|
D|---------------------------------------------------------------|
A|---------------------------------------------------------------|
E|-0-0-0-0--0-0-0-0--0-0-0-0--0-0-0-0----------------------------|

G|---------------------------------------------------------------|
D|---------------------------------------------------------------|
A|-5-5-5-5--5-5-5-5--5-5-5-5--5-5-5-5----------------------------|
E|---------------------------------------------------------------|

G|---------------------------------------------------------------|
D|---------------------------------------------------------------|
A|-6-6-6-6--6-6-6-6--6-6-6-6--6-6-6-6--6-------------------------|
E|---------------------------------------------------------------|

[Breakdown]
(Fuck with this new beat)
G|-------------------------|-------------------------------------|
D|-------------------------|-------------------------------------|
A|--------------5---7----8-|------------5---7---8----------------|
E|-0-0-0-0-0-0-0--0----0---|-0-0-0-0-0-0--0---0------------------|

G|-------------------------|-------------------------------------|
D|-------------------------|-------------------------------------|
A|--------------5---7----8-|------------8---7--------------------|
E|-6-6-6-6-6-6-6--6----6---|-6-6-6-6-6-6--6----------------------|

G|-------------------------|-------------------------------------|
D|-------------------------|-------------------------------------|
A|--------------5---7----8-|------------5---7---8----------------|
E|-0-0-0-0-0-0-0--0----0---|-0-0-0-0-0-0--0---0------------------|

G|-------------------------|-------------------------------------|
D|-------------------------|-------------------------------------|
A|--------------5---7----8-|------------8---7--------------------|
E|-6-6-6-6-6-6-6--6----6---|-6-6-6-6-6-6--6----------------------|

G|---------------------------------------------------------------|
D|---------------------------------------------------------------|
A|---------------5-0-0-7-0-0-8-0---------------------------------|
E|-0-0-0-0-0-0-0-------------------------------------------------|

G|---------------------------------------------------------------|
D|---------------------------------------------------------------|
A|---------------5-0-0-7-0-0-8-0---------------------------------|
E|-0-0-0-0-0-0-0-------------------------------------------------|

G|---------------------------------------------------------------|
D|---------------------------------------------------------------|
A|---------------5-0-0-7-0-0-8-0---------------------------------|
E|-6-6-6-6-6-6-6-------------------------------------------------|

G|---------------------------------------------------------------|
D|---------------------------------------------------------------|
A|---------------5-0-0-7-0-0-8-0---------------------------------|
E|-6-6-6-6-6-6-6-------------------------------------------------|

G|---------------------------------------------------------------|
D|---------------------------------------------------------------|
A|---------------5-0-0-7-0-0-8-0---------------------------------|
E|-0-0-0-0-0-0-0-------------------------------------------------|

G|---------------------------------------------------------------|
D|---------------------------------------------------------------|
A|---------------5-0-0-7-0-0-8-0---------------------------------|
E|-0-0-0-0-0-0-0-------------------------------------------------|

G|---------------------------------------------------------------|
D|---------------------------------------------------------------|
A|---------------5-0-0-7-0-0-8-0---------------------------------|
E|-6-6-6-6-6-6-6-------------------------------------------------|

G|---------------------------------------------------------------|
D|---------------------------------------------------------------|
A|---------------5-0-0-7-0-0-8-0---------------------------------|
E|-6-6-6-6-6-6-6-------------------------------------------------|

[Chorus]
G|---------------------------------------------------------------|
D|---------------------------------------------------------------|
A|---------------------------------------------------------------|
E|-0-0--0-0--0---------------------------------------------------|

G|---------------------------------------------------------------|
D|---------------------------------------------------------------|
A|---------------------------------------------------------------|
E|-8-8--8-8--8---------------------------------------------------|

G|---------------------------------------------------------------|
D|---------------------------------------------------------------|
A|---------------------------------------------------------------|
E|-5-5--5-5--5---------------------------------------------------|

G|------------------------|---------------------------------------|
D|------------------------|---------------------------------------|
A|------------------------|---------------------------------------|
E|-3~---------------------|-7-7--7-7--7---------------------------|

G|---------------------------------------------------------------|
D|---------------------------------------------------------------|
A|---------------------------------------------------------------|
E|-0-0--0-0--0-0--0-0--0-0--0-0--0-0--0-0------------------------|

G|---------------------------------------------------------------|
D|---------------------------------------------------------------|
A|-1-1--1-1--1-1--1-1--1-1--1-1--1-1--1-1------------------------|
E|---------------------------------------------------------------|

G|---------------------------------------------------------------|
D|---------------------------------------------------------------|
A|---------------------------------------------------------------|
E|-5-5--5-5--5-5--5-5--5-5--5-5--5-5--5-5------------------------|

G|---------------------------------------------------------------|
D|---------------------------------------------------------------|
A|-0-0-0-0-0-0-0-0-0---------------------------------------------|
E|---------------------------------------------------------------|

G|---------------------------------------------------------------|
D|---------------------------------------------------------------|
A|---------------------------------------------------------------|
E|-0-0-0-0-0~----------------------------------------------------|



************************************

| ~  Vibrato

************************************

            
            
Suggest correction
Creating personal tab
Creating personal tab
You can edit any tab online and save it as your Personal.

You can edit, replace or remove any tab part or add personal notes – all changes will be seen only by you.

Personal tabs can be accessed anytime from any device, even offline.
Learn more »
comments
print report bad tab
4 comments total. Showing first comments.
0 reply
apokalyptisch66 13 Dec 31, 2015 04:55 AM

absolutely wrong

0 reply
alonsklovic9 10 Jun 08, 2016 03:54 PM

is drop B not standar

0 reply
johnnyozzy 10 Jun 20, 2016 11:12 AM

shit, the worst tab i have ever seen in my entire life, shit shit shit shit shit shit shit shit shit

guest
You may want to rate the tab now too:
select rating
Wanna post a correction for this tab? Suggest correction