Oops, an error
Loading. Please wait.
We have an official King For A Day tab made by UG professional guitarists. Check out the tab »
×

King For A Day tab

version 6
version 6

Whole song

  • Tried to simplfy the reading experience for the pl... Show more
  • Fixed errors made in previous tab with easier to u... Show more

Interactive

347 views 1 this week
no commentswrite comment
1 2 3 4 5
1 last vote to show rating
add to favorites
×
Save as Personal and add changes to this tab that will be seen only by you. Learn more ›
×
You can save this tab as Personal to edit and correct it or add notes. All changes will be seen only by you. Learn more »
launch autoscroll
font size
0
reset
how to read this tab
guitar tuner
edit
Autoscroll
slow
fast
+/-
esc
set tempo
stop
About this tab version
Fixed errors made in previous tab with easier to understand timing which guitar is played by who. Was this info helpful? Yes No
Drop B Tuner (You will have to do it by ear) ----> https://www.youtube.com/watch?v=y9cpAl501f8

Guitar 1: Tony Perry
Guitar 2: Vic Fuentes

Intro:

Guitar 1
C#|---------------------------------------------------------------------------|
G#|---6-6-6-6-6-6-6-6-6-6-6-6-6-6-6-6--5-5-5-5-5-5-5-5-5-5-5-5-5-5-5-5--------|
E |---------------------------------------------------------------------------|
B |---------------------------------------------------------------------------|
F#|---5-5-5-5-5-5-5-5-5-5-5-5-5-5-5-5--4-4-4-4-4-4-4-4-4-4-4-4-4-4-4-4--------|
B |---------------------------------------------------------------------------|

Guitar 2
C#|--------------------------------------------------------------------------|
G#|-------------8--10--11--10--9--8-----10--9--8-----11--10------------------|
E |---7--9--10-----------------------6------------6--------------------------|
B |--------------------------------------------------------------------------|
F#|--------------------------------------------------------------------------|
B |--------------------------------------------------------------------------|


Verse:

Guitar 1 & 2
C#|-----------------------------------------------------|
G#|-----------------------------------------------------|
E |--------------------------6--6-6------6--6-6---------|
B |--0--0-0------0--0-0------x--x-x------x--x-x---------|
F#|--0--0-0------0--0-0------4--4-4------4--4-4---------|
B |--0--0-0------0--0-0---------------------------------|

C#|-------------------------------------------------------------------------------------------------|
G#|-------------------------------------------------------------------------------------------------|
E |--------------------------6-6-6-6/14-14-14-14/12-12-12-12/13-13-13-13/14-14-14-14-14-14-14-14----|
B |--0--0-0------0--0-0------x-x-x-x/x--x--x--x-/x--x--x--x-/x--x--x--x-/x--x--x--x--x--x--x--x-----|
F#|--0--0-0------0--0-0------4-4-4-4/12-12-12-12/10-10-10-10/11-11-11-11/12-12-12-12-12-12-12-12----|
B |--0--0-0------0--0-0-----------------------------------------------------------------------------|


Pre-Chorus:

Guitar 1 & 2
C#|---------------------------------------------------------------------------|
G#|-10-10-10-10-10-10-10-10-10-10-10-10-10-10-10-10-10-10-10-10-10-10-10-10---|
E |-10-10-10-10-10-10-10-10-10-10-10-10-10-10-10-10-10-10-10-10-10-10-10-10---|
B |-8--8--8--8--8--8--8--8--8--8--8--8--8--8--8--8--8--8--8--8--8--8--8--8----|
F#|---------------------------------------------------------------------------|
B |---------------------------------------------------------------------------|

C#|---------------------------------------------------------------------------|
G#|-8--8--8--8--8--8--8--8--8--8--8--8--8--8--8--8--8--8--8--8--8--8--8--8----|
E |-9--9--9--9--9--9--9--9--9--9--9--9--9--9--9--9--9--9--9--9--9--9--9--9----|
B |-10-10-10-10-10-10-10-10-10-10-10-10-10-10-10-10-10-10-10-10-10-10-10-10---|
F#|---------------------------------------------------------------------------|
B |---------------------------------------------------------------------------|

C#|---------------------------------------------------------------------------|
G#|-10-10-10-10-10-10-10-10-10-10-10-10-11-11-11-11-11-11-10-10-10-10-10-10---|
E |-10-10-10-10-10-10-10-10-10-10-10-10-10-10-10-10-10-10-10-10-10-10-10-10---|
B |-8--8--8--8--8--8--8--8--8--8--8--8--8--8--8--8--8--8--8--8--8--8--8--8----|
F#|---------------------------------------------------------------------------|
B |---------------------------------------------------------------------------|

C#|------------------------------------------|
G#|-8--8--8--8--8--8--8--8--8--8--8--8--8----|
E |-9--9--9--9--9--9--9--9--9--9--9--9--9----|
B |-10-10-10-10-10-10-10-10-10-10-10-10-10---|
F#|------------------------------------------|
B |------------------------------------------|


Chorus:

Guitar 1
C#|--------------------------------------------------------------------|
G#|--------------------------------------------------------------------|
E |-7-7-7-7-7-7-7-7-7-7-7-7-7-7-7-7------------------------------------|
B |-7-7-7-7-7-7-7-7-7-7-7-7-7-7-7-7--8-8-8-8-8-8-8-8-8-8-8-8-8-8-8-8---|
F#|-5-5-5-5-5-5-5-5-5-5-5-5-5-5-5-5--8-8-8-8-8-8-8-8-8-8-8-8-8-8-8-8---|
B |----------------------------------8-8-8-8-8-8-8-8-8-8-8-8-8-8-8-8---|
  
C#|-----------------5-5-5-5-6-6-6-6------------------------------------|
G#|-----------------x-x-x-x-x-x-x-x------------------------------------|
E |-----------------x-x-x-x-x-x-x-x------------------------------------|
B |-5-5-5-5-5-5-5-5-5-5-5-5-5-5-5-5--7-7-7-7-7-7-7-7-7-7-7-7-7-7-7-7---|
F#|-5-5-5-5-5-5-5-5-5-5-5-5-5-5-5-5--7-7-7-7-7-7-7-7-7-7-7-7-7-7-7-7---|
B |-5-5-5-5-5-5-5-5-5-5-5-5-5-5-5-5--7-7-7-7-7-7-7-7-7-7-7-7-7-7-7-7---|

Guitar 2
C#|-------------------------------------------------------------------------------------------------|
G#|-15-15-15-15-15-15-15-15-15-15-15-15-15-15-15-15--11-11-11-11-11-11-11-11-11-11-11-11-11-11-11-11|
E |-14-14-14-14-14-14-14-14-14-14-14-14-14-14-14-14--10-10-10-10-10-10-10-10-10-10-10-10-10-10-10-10|
B |-12-12-12-12-12-12-12-12-12-12-12-12-12-12-12-12--8--8--8--8--8--8--8--8--8--8--8--8--8--8--8--8-|
F#|-------------------------------------------------------------------------------------------------|
B |-------------------------------------------------------------------------------------------------|

C#|-----------------5-5-5-5-6-6-6-6----------------------------------------------------|
G#|-8-8-8-8-8-8-8-8-8-8-8-8-8-8-8-8--10-10-10-10-10-10-10-10-10-10-10-10-10-10-10-10---|
E |-7-7-7-7-7-7-7-7-7-7-7-7-7-7-7-7--9--9--9--9--9--9--9--9--9--9--9--9--9--9--9--9----|
B |-5-5-5-5-5-5-5-5-5-5-5-5-5-5-5-5--7--7--7--7--7--7--7--7--7--7--7--7--7--7--7--7----|
F#|------------------------------------------------------------------------------------|
B |------------------------------------------------------------------------------------|


Post Chorus:

Guitar 1
C#|----------------------------------------------------------------|
G#|----------------------------------------------------------------|
E |----------------------------------------------------------------|
B |----------------------------------------------------------------|
F#|---5h8-5h8-5h8-5h8-5h8-5h7-5h7----5h8-5h8-5h8-5h8-5h8-5h7-5h7---|
B |-0------------------------------0-------------------------------|
     
Guitar 1 & 2
C#|----------------------------------------------------------------|
G#|----------------------------------------------------------------|
E |----------------------------------------------------------------|
B |----------------------------------------------------------------|
F#|---4h7-4h7-4h7-4h7-4h7-4h7-4h7----4h7-4h7-4h7-4h7-4h7-4h7-4h7---|
B |-0------------------------------0-------------------------------|


Verse 2:

*Note there is a bass section before the hammering resumes*

Guitar 1
C#|----------------------------------------------------------------|
G#|----------------------------------------------------------------|
E |----------------------------------------------------------------|
B |----------------------------------------------------------------|
F#|---5h8-5h8-5h8-5h8-5h8-5h7-5h7----5h8-5h8-5h8-5h8-5h8-5h7-5h7---|
B |-0------------------------------0-------------------------------|
     
C#|----------------------------------------------------------------|
G#|----------------------------------------------------------------|
E |----------------------------------------------------------------|
B |----------------------------------------------------------------|
F#|---4h7-4h7-4h7-4h7-4h7-4h7-4h7----4h7-4h7-4h7-4h7-4h7-4h7-4h7---|
B |-0------------------------------0-------------------------------|

Guitar 2
C#|----------------------------------------------------------------|
G#|----------------------------------------------------------------|
E |----------------------------------------------------------------|
B |----------------------------------------------------------------|
F#|---5h8-5h8-5h8-5h8-5h8-5h7-5h7----5h8-5h8-5h8-5h8-5h8-5h7-5h7---|
B |-0------------------------------0-------------------------------|

C#|----------------------------------------------------------------|
G#|----------------------------------------------------------------|
E |----------------------------------------------------------------|
B |---2h5-2h5-2h5-2h5-2h5-2h5-2h5----2h5-2h5-2h5-2h5-2h5-2h5-2h5---|
F#|----------------------------------------------------------------|
B |-0------------------------------0-------------------------------|


Pre-Chorus:

Guitar 1 & 2
C#|---------------------------------------------------------------------------|
G#|-10-10-10-10-10-10-10-10-10-10-10-10-10-10-10-10-10-10-10-10-10-10-10-10---|
E |-10-10-10-10-10-10-10-10-10-10-10-10-10-10-10-10-10-10-10-10-10-10-10-10---|
B |-8--8--8--8--8--8--8--8--8--8--8--8--8--8--8--8--8--8--8--8--8--8--8--8----|
F#|---------------------------------------------------------------------------|
B |---------------------------------------------------------------------------|

C#|---------------------------------------------------------------------------|
G#|-8--8--8--8--8--8--8--8--8--8--8--8--8--8--8--8--8--8--8--8--8--8--8--8----|
E |-9--9--9--9--9--9--9--9--9--9--9--9--9--9--9--9--9--9--9--9--9--9--9--9----|
B |-10-10-10-10-10-10-10-10-10-10-10-10-10-10-10-10-10-10-10-10-10-10-10-10---|
F#|---------------------------------------------------------------------------|
B |---------------------------------------------------------------------------|

C#|---------------------------------------------------------------------------|
G#|-10-10-10-10-10-10-10-10-10-10-10-10-10-10-10-10-10-10-10-10-10-10-10-10---|
E |-10-10-10-10-10-10-10-10-10-10-10-10-10-10-10-10-10-10-10-10-10-10-10-10---|
B |-8--8--8--8--8--8--8--8--8--8--8--8--8--8--8--8--8--8--8--8--8--8--8--8----|
F#|---------------------------------------------------------------------------|
B |---------------------------------------------------------------------------|

C#|----------------------------------------------------------------------|
G#|-8--8--8--8--8--8--8--8--8--8--8--8--8--8--8--8--8--8--8--8--8--------|
E |-9--9--9--9--9--9--9--9--9--9--9--9--9--9--9--9--9--9--9--9--9--------|
B |-10-10-10-10-10-10-10-10-10-10-10-10-10-10-10-10-10-10-10-10-10-12/---|
F#|----------------------------------------------------------------12/---|
B |----------------------------------------------------------------12/---|


Chorus:

Guitar 1
C#|--------------------------------------------------------------------|
G#|--------------------------------------------------------------------|
E |-7-7-7-7-7-7-7-7-7-7-7-7-7-7-7-7------------------------------------|
B |-7-7-7-7-7-7-7-7-7-7-7-7-7-7-7-7--8-8-8-8-8-8-8-8-8-8-8-8-8-8-8-8---|
F#|-5-5-5-5-5-5-5-5-5-5-5-5-5-5-5-5--8-8-8-8-8-8-8-8-8-8-8-8-8-8-8-8---|
B |----------------------------------8-8-8-8-8-8-8-8-8-8-8-8-8-8-8-8---|
  
C#|-----------------5-5-5-5-6-6-6-6------------------------------------|
G#|-----------------x-x-x-x-x-x-x-x------------------------------------|
E |-----------------x-x-x-x-x-x-x-x------------------------------------|
B |-5-5-5-5-5-5-5-5-5-5-5-5-5-5-5-5--7-7-7-7-7-7-7-7-7-7-7-7-7-7-7-7---|
F#|-5-5-5-5-5-5-5-5-5-5-5-5-5-5-5-5--7-7-7-7-7-7-7-7-7-7-7-7-7-7-7-7---|
B |-5-5-5-5-5-5-5-5-5-5-5-5-5-5-5-5--7-7-7-7-7-7-7-7-7-7-7-7-7-7-7-7---|

C#|--------------------------------------------------------------------|
G#|--------------------------------------------------------------------|
E |-7-7-7-7-7-7-7-7-7-7-7-7-7-7-7-7------------------------------------|
B |-7-7-7-7-7-7-7-7-7-7-7-7-7-7-7-7--8-8-8-8-8-8-8-8-8-8-8-8-8-8-8-8---|
F#|-5-5-5-5-5-5-5-5-5-5-5-5-5-5-5-5--8-8-8-8-8-8-8-8-8-8-8-8-8-8-8-8---|
B |----------------------------------8-8-8-8-8-8-8-8-8-8-8-8-8-8-8-8---|

C#|-----------------5-5-5-5-6-6-6-6----------------------|
G#|-----------------x-x-x-x-x-x-x-x----------------------|
E |-----------------x-x-x-x-x-x-x-x----------------------|
B |-5-5-5-5-5-5-5-5-5-5-5-5-5-5-5-5--7-7-7-7-7-7-7-7-7---|
F#|-5-5-5-5-5-5-5-5-5-5-5-5-5-5-5-5--7-7-7-7-7-7-7-7-7---|
B |-5-5-5-5-5-5-5-5-5-5-5-5-5-5-5-5--7-7-7-7-7-7-7-7-7---|

Guitar 2
C#|--------------------------------------------------------------------------------------------------|
G#|-15-15-15-15-15-15-15-15-15-15-15-15-15-15-15-15--11-11-11-11-11-11-11-11-11-11-11-11-11-11-11-11-|
E |-14-14-14-14-14-14-14-14-14-14-14-14-14-14-14-14--10-10-10-10-10-10-10-10-10-10-10-10-10-10-10-10-|
B |-12-12-12-12-12-12-12-12-12-12-12-12-12-12-12-12--8--8--8--8--8--8--8--8--8--8--8--8--8--8--8--8--|
F#|--------------------------------------------------------------------------------------------------|
B |--------------------------------------------------------------------------------------------------|

C#|-----------------5-5-5-5-6-6-6-6----------------------------------------------------|
G#|-8-8-8-8-8-8-8-8-8-8-8-8-8-8-8-8--10-10-10-10-10-10-10-10-10-10-10-10-10-10-10-10---|
E |-7-7-7-7-7-7-7-7-7-7-7-7-7-7-7-7--9--9--9--9--9--9--9--9--9--9--9--9--9--9--9--9----|
B |-5-5-5-5-5-5-5-5-5-5-5-5-5-5-5-5--7--7--7--7--7--7--7--7--7--7--7--7--7--7--7--7----|
F#|------------------------------------------------------------------------------------|
B |------------------------------------------------------------------------------------|

C#|--------------------------------------------------------------------------------------------------|
G#|-15-15-15-15-15-15-15-15-15-15-15-15-15-15-15-15--11-11-11-11-11-11-11-11-11-11-11-11-11-11-11-11-|
E |-14-14-14-14-14-14-14-14-14-14-14-14-14-14-14-14--10-10-10-10-10-10-10-10-10-10-10-10-10-10-10-10-|
B |-12-12-12-12-12-12-12-12-12-12-12-12-12-12-12-12--8--8--8--8--8--8--8--8--8--8--8--8--8--8--8--8--|
F#|--------------------------------------------------------------------------------------------------|
B |--------------------------------------------------------------------------------------------------|

C#|-----------------5-5-5-5-6-6-6-6-------------------------------|
G#|-8-8-8-8-8-8-8-8-8-8-8-8-8-8-8-8--10-10-10-10-10-10-10-10-10---|
E |-7-7-7-7-7-7-7-7-7-7-7-7-7-7-7-7--9--9--9--9--9--9--9--9--9----|
B |-5-5-5-5-5-5-5-5-5-5-5-5-5-5-5-5--7--7--7--7--7--7--7--7--7----|
F#|---------------------------------------------------------------|
B |---------------------------------------------------------------|


Pre-Breakdown:

Guitar 1
C#|-----------------------------------------------------------|
G#|-----------------------------------------------------------|
E |-----------------------------------------------------------|
B |-0~-------------------------0~----------------/pickslide---|
F#|-0~-------------------------0~----------------/pickslide---|
B |-0~-------------------------0~----------------/pickslide---|

Guitar 2
C#|-----------------------------------------------------------|
G#|-----------------------------------------------------------|
E |-----------------------------------------------------------|
B |-0~-------------------------------------------/pickslide---|
F#|-0~-------------------------------------------/pickslide---|
B |-0~-------------------------------------------/pickslide---|

Guitar 1 & 2
C#|---------------------------------------------------------------------------------------------|
G#|---------------------------------------------------------------------------------------------|
E |-14-14-14-14-14-14-10-10-10-15-15-15-14-14-14-14-14-14-10-10-10-14-14-14-13-13-13-13-13-13---|
B |-x--x--x--x--x--x--x--x--x--x--x--x--x--x--x--x--x--x--x--x--x--x--x--x--x--x--x--x--x--x----|
F#|-12-12-12-12-12-12-8--8--8--13-13-13-12-12-12-12-12-12-8--8--8--12-12-12-11-11-11-11-11-11---|
B |---------------------------------------------------------------------------------------------|
Cont.
C#|---------------------------------------------------|
G#|---------------------------------------------------|
E |-9-9-9-14-14-14-13-13-13-13-13-13-9-9-9-13-13-13---|
B |-x-x-x-x--x--x--x--x--x--x--x--x--x-x-x-x--x--x----|
F#|-7-7-7-12-12-12-11-11-11-11-11-11-7-7-7-11-11-11---|
B |---------------------------------------------------|
Cont.
C#|---------------------------------------------------------------------------|
G#|---------------------------------------------------------------------------|
E |-14-14-14-14-14-14-10-10-10-15-15-15-14-14-14-14-14-14-10-10-10-14-14-14---|
B |-x--x--x--x--x--x--x--x--x--x--x--x--x--x--x--x--x--x--x--x--x--x--x--x----|
F#|-12-12-12-12-12-12-8--8--8--13-13-13-12-12-12-12-12-12-8--8--8--12-12-12---|
B |---------------------------------------------------------------------------|

C#|--------------------------------------------|
G#|--------------------------------------------|
E |-13-13-13-13-13-13-13-13-13-13-13-13-13-----|
B |-x--x--x--x--x--x--x--x--x--x--x--x--x------|
F#|-11-11-11-11-11-11-11-11-11-11-11-11-11-----|
B |--------------------------------------------|


Breakdown:

Guitars 1 & 2
C#|----------------------------------------------------------------------------------------------|
G#|----------------------------------------------------------------------------------------------|
E |----------------------------------------------------------------------------------------------|  
B |----------------------------------------------------------------------------------------------| (Play Twice)
F#|-0--------------5---7---8---------------5---7---8--6--------------5---7---8---6666-6-8---7*---|
B |-0--0-0-0-0-0-0---0---0-----0-0-0-0-0-0---0---0----6--6-6-6-6-6-6---6---6-----6666-6---6------|
   PM: * * * * * *   *   *     * * * * * *   *   *       * * * * * *   *   *     **** *   *

C#|----------------------------------------------------------------|
G#|----------------------------------------------------------------|
E |----------------------------------------------------------------|  
B |----------------------------------------------------------------|  
F#|-0-------------5p0-7p0-8p0-7p0-0-------------5p0-7p0-8p0-7p0----|  
B |-0-0-0-0-0-0-0-----------------0-0-0-0-0-0-0--------------------|  
  PM: * * * * * *                   * * * * * *                       
cont                                                                   (Play twice)
C#|----------------------------------------------------------------|  
G#|----------------------------------------------------------------|  
E |----------------------------------------------------------------|  
B |----------------------------------------------------------------|  
F#|-6-------------5p0-7p0-8p0-7p0-6-------------5p0-7p0-8p0-7p0----| 
B |-6-6-6-6-6-6-6-----------------6-6-6-6-6-6-6--------------------|
  PM: * * * * * *                   * * * * * *

Guitar 3, *Tremolo Picked*
C#|-17-13-18-17-13-17-16-12-17-16-12-16---|
G#|---------------------------------------|
E |---------------------------------------| (Play this three times)
B |---------------------------------------|
F#|---------------------------------------|
B |---------------------------------------|


Final Chorus:

Guitar 1 & 2
C#|----------------------------------------------------|
G#|----------------------------------------------------|
E |-7-7-7-7-7------------------------------------------|
B |-7-7-7-7-7----8-8-8-8-8----5-5-5-5-5----7-7-7-7-7---|
F#|-5-5-5-5-5----8-8-8-8-8----5-5-5-5-5----7-7-7-7-7---|
B |--------------8-8-8-8-8----5-5-5-5-5----7-7-7-7-7---|

Guitar 1:
C#|--------------------------------------------------------------------|
G#|--------------------------------------------------------------------|
E |-7-7-7-7-7-7-7-7-7-7-7-7-7-7-7-7------------------------------------|
B |-7-7-7-7-7-7-7-7-7-7-7-7-7-7-7-7--8-8-8-8-8-8-8-8-8-8-8-8-8-8-8-8---|
F#|-5-5-5-5-5-5-5-5-5-5-5-5-5-5-5-5--8-8-8-8-8-8-8-8-8-8-8-8-8-8-8-8---|
B |-0-0-0-0-0-0-0-0-0-0-0-0-0-0-0-0--8-8-8-8-8-8-8-8-8-8-8-8-8-8-8-8---|

C#|-----------------5-5-5-5-6-6-6-6------------------------------------|
G#|-----------------x-x-x-x-x-x-x-x------------------------------------|
E |-----------------x-x-x-x-x-x-x-x------------------------------------|
B |-5-5-5-5-5-5-5-5-5-5-5-5-5-5-5-5--7-7-7-7-7-7-7-7-7-7-7-7-7-7-7-7---|
F#|-5-5-5-5-5-5-5-5-5-5-5-5-5-5-5-5--7-7-7-7-7-7-7-7-7-7-7-7-7-7-7-7---|
B |-5-5-5-5-5-5-5-5-5-5-5-5-5-5-5-5--7-7-7-7-7-7-7-7-7-7-7-7-7-7-7-7---|

C#|--------------------------------------------------------------------|
G#|--------------------------------------------------------------------|
E |-7-7-7-7-7-7-7-7-7-7-7-7-7-7-7-7------------------------------------|
B |-7-7-7-7-7-7-7-7-7-7-7-7-7-7-7-7--8-8-8-8-8-8-8-8-8-8-8-8-8-8-8-8---|
F#|-5-5-5-5-5-5-5-5-5-5-5-5-5-5-5-5--8-8-8-8-8-8-8-8-8-8-8-8-8-8-8-8---|
B |----------------------------------8-8-8-8-8-8-8-8-8-8-8-8-8-8-8-8---|

C#|-----------------5-5-5-5-6-6-6-6----------------------|
G#|-----------------x-x-x-x-x-x-x-x----------------------|
E |-----------------x-x-x-x-x-x-x-x----------------------|
B |-5-5-5-5-5-5-5-5-5-5-5-5-5-5-5-5--7-7-7-7-7-7-7-7-7---|
F#|-5-5-5-5-5-5-5-5-5-5-5-5-5-5-5-5--7-7-7-7-7-7-7-7-7---|
B |-5-5-5-5-5-5-5-5-5-5-5-5-5-5-5-5--7-7-7-7-7-7-7-7-7---|

Guitar 2:
C#|--------------------------------------------------------------------------------------------------|
G#|-15-15-15-15-15-15-15-15-15-15-15-15-15-15-15-15--11-11-11-11-11-11-11-11-11-11-11-11-11-11-11-11-|
E |-14-14-14-14-14-14-14-14-14-14-14-14-14-14-14-14--10-10-10-10-10-10-10-10-10-10-10-10-10-10-10-10-|
B |-12-12-12-12-12-12-12-12-12-12-12-12-12-12-12-12--8--8--8--8--8--8--8--8--8--8--8--8--8--8--8--8--|
F#|--------------------------------------------------------------------------------------------------|
B |--------------------------------------------------------------------------------------------------|

C#|-----------------5-5-5-5-6-6-6-6----------------------------------------------------|
G#|-8-8-8-8-8-8-8-8-8-8-8-8-8-8-8-8--10-10-10-10-10-10-10-10-10-10-10-10-10-10-10-10---|
E |-7-7-7-7-7-7-7-7-7-7-7-7-7-7-7-7--9--9--9--9--9--9--9--9--9--9--9--9--9--9--9--9----|
B |-5-5-5-5-5-5-5-5-5-5-5-5-5-5-5-5--7--7--7--7--7--7--7--7--7--7--7--7--7--7--7--7----|
F#|------------------------------------------------------------------------------------|
B |------------------------------------------------------------------------------------|

C#|--------------------------------------------------------------------------------------------------|
G#|-15-15-15-15-15-15-15-15-15-15-15-15-15-15-15-15--11-11-11-11-11-11-11-11-11-11-11-11-11-11-11-11-|
E |-14-14-14-14-14-14-14-14-14-14-14-14-14-14-14-14--10-10-10-10-10-10-10-10-10-10-10-10-10-10-10-10-|
B |-12-12-12-12-12-12-12-12-12-12-12-12-12-12-12-12--8--8--8--8--8--8--8--8--8--8--8--8--8--8--8--8--|
F#|--------------------------------------------------------------------------------------------------|
B |--------------------------------------------------------------------------------------------------|

C#|-----------------5-5-5-5-6-6-6-6-------------------------------|
G#|-8-8-8-8-8-8-8-8-8-8-8-8-8-8-8-8--10-10-10-10-10-10-10-10-10---|
E |-7-7-7-7-7-7-7-7-7-7-7-7-7-7-7-7--9--9--9--9--9--9--9--9--9----|
B |-5-5-5-5-5-5-5-5-5-5-5-5-5-5-5-5--7--7--7--7--7--7--7--7--7----|
F#|---------------------------------------------------------------|
B |---------------------------------------------------------------|

C#|-------------|
G#|-------------|
E |-7-7-7-7-7---|
B |-7-7-7-7-7---|
F#|-5-5-5-5-5---|
B |-------------|


************************************

| /   slide up
| \   slide down
| h   hammer-on
| p   pull-off
| ~   hold out
| +   harmonic
| x   Mute note
| b   Bend
| pb  Pre-bend
| br  Bend release
| pbr Pre-bend release
| brb Bend release bend

************************************

            
            
Suggest correction
Creating personal tab
Creating personal tab
You can edit any tab online and save it as your Personal.

You can edit, replace or remove any tab part or add personal notes – all changes will be seen only by you.

Personal tabs can be accessed anytime from any device, even offline.
Learn more »
Give kudos to tab author, rate the tab!
1 2 3 4 5
comments
print report bad tab
guest
You may want to rate the tab now too:
select rating
Wanna post a correction for this tab? Suggest correction