Oops, an error
Loading. Please wait.

One Hundred Sleepless Nights tab

version 2
version 2

Whole song

  • Vast corrections for strum patterns, chorus, verse... Show more
  • Incorporates two guitars, dirty tone and overdrive prefered when playing.

Interactive

235 views 1 this week
no commentswrite comment
1 2 3 4 5
1 last vote to show rating
add to favorites
×
Save as Personal and add changes to this tab that will be seen only by you. Learn more ›
×
You can save this tab as Personal to edit and correct it or add notes. All changes will be seen only by you. Learn more »
launch autoscroll
font size
0
reset
how to read this tab
guitar tuner
edit
Autoscroll
slow
fast
+/-
esc
set tempo
stop
About this tab version
Vast corrections for strum patterns, chorus, verse, tapping section, outro, varied choruses, and in drop D tuning. Was this info helpful? Yes No
Onde Hundred Sleepless Nights

I am very confident that the majority of this tab is 100% correct or close to. 
The outro needs your guys' help. It doesn't feel right to me. 


[Intro]

e|-----------------------------|
B|-----------------------------|
G|-7-----8-----10-----11-------|
D|-x-x6--x-x6--x--x6--x--x6----|
A|-5-----6-----8------11-------|
D|-----------------------------|

[Verse]
e|-----------------------------|--------------------------------|
B|-----------------------------|--------------------------------|
G|---8---11---8---7---10----7--|---8---11---8---7---10----7-----|
D|-8---8----8---8---8----8-----|-8---8----8---8---8----8--------|
A|-----------------------------|--------------------------------|
D|-----------------------------|--------------------------------|

e|-----------------------------|--------------------------------|
B|-----------------------------|--------------------------------|
G|---8---11---8---8---10----8--|---8---11---8-------------------|
D|-9---9----9---9---9----9-----|-9---9----9---8-8-8-8-8-8-------|
A|-----------------------------|--------------8-8-8-8-8-8-------|
D|-----------------------------|--------------8-8-8-8-8-8-------|

e|-----------------------------|--------------------------------|
B|-----------------------------|--------------------------------|
G|---8---11---8---7---10----7--|---8---11---8---7---10----7-----|
D|-8---8----8---8---8----8-----|-8---8----8---8---8----8--------|
A|-----------------------------|--------------------------------|
D|-----------------------------|--------------------------------|

e|-----------------------------|
B|-----------------------------|
G|---8---11---8---8---10----8--|
D|-9---9----9---9---9----9-----|
A|-----------------------------|
D|-----------------------------|

[0:26]
e|-----------------------------|-------------------------------------|
B|-----------------------------|-------9---11-9b11~--9---9---9~------|
G|-----------------------------|-8/0---------------------------------|
D|-8--------------8-8-8-8-8-8--|-x-x---------------------------------|
A|-8--------------8-8-8-8-8-8--|-8/0---------------------------------|
D|-8--------------8-8-8-8-8-8--|-------------------------------------|

e|-----------------------------------|-------------------------------------|
B|---7/9----7~-----------------------|-------0\9---11-11~------------------|
G|-8-----10-------10-10-10-10-10-10--|-8/0---------------------------------|
D|----------------x--x--x--x--x--x---|-x-x---------------------------------|
A|----------------8--8--8--8--8--8---|-8/0---------------------------------|
D|-----------------------------------|-------------------------------------|

e|---------------------------------------------------------------------------|
B|-9---11---11b12-11-9--------9----------------------------------------------|
G|----------------------11------11-10-11-10-8-10-8-6-8-6-4-3~----------------|
D|---------------------------------------------------------------------------|
A|---------------------------------------------------------------------------|
D|---------------------------------------------------------------------------|
   
(But I..Don't... See...)
e|---------------------------------------------------------------------------|
B|------4~-------6~-------4\6-4\3~-------------------------------------------|
G|---------------------------------------------------------------------------|
D|-----------------------------------------6\8--8\11-8~--8\0-----------------|
A|---------------------------------------------------------------------------|
D|---------------------------------------------------------------------------|

e|---------------------------------------------------------------------------|
B|-----------------------11h12p11h12p11h12p11h12p11--------------------------|
G|-7---7-7-7--6-------13--------------------------13-------------------------|
D|-x---x-x-x--x--------------------------------------------------------------|
A|-5---5-5-5--6--------------------------------------------------------------|
D|---------------------------------------------------------------------------|

e|---------------------------------------------------------------------------|
B|---------------------------------------------------------------------------|
G|--7\0------7-7\0-------7-7-7-7-7-7-7-7-7-----------------------------------|
D|--x-x------x-x---------x-x-x-x-x-x-x-x-x-----------------------------------|
A|--5\0------5-5\0-------5-5-5-5-5-5-5-5-5-----------------------------------|
D|---------------------------------------------------------------------------|

[Chorus]
e|---------------------------------------------------------------------------|
B|---------------------------------------------------------------------------|
G|---------------------------------------------------------------------------|
D|-1-----1----3----4----11----9-----8----6----8-----6----4-------------------|
A|-1-x12-1-x3-3-x3-4-x3-11-x3-9-x12-8-x6-6-x6-8-x12-6-x6-4-x6----------------|
D|-1-----1----3----4----11----9-----8----6----8-----6----4-------------------|

e|---------------------------------------------------------------------------|
B|---------------------------------------------------------------------------|
G|--------------------------8-8-8-8-8-8-10-10-10-10-10-10--------------------|
D|-8---8-------8---8--------x-x-x-x-x-x-x--x--x--x--x--x---------------------|
A|-8---8-------8---8--------6-6-6-6-6-6-8--8--8--8--8--8---------------------|
D|-8---8---4-6-8---8---4-6---------------------------------------------------|

[Interlude]
[1:17]
e|-T14-p6-h9-T11-p6-h9-T13-p6-h9-T11-p6-h9----|
B|--------------------------------------------| x2
G|--------------------------------------------|
D|--------------------------------------------|
A|--------------------------------------------|
D|--------------------------------------------|

[Verse 2]
(On the down beat only)
e|---------------------------------------------------------------------------|
B|---------------------------------------------------------------------------|
G|-8-----7-------------------------------------------------------------------|
D|-x-x8--x-x8----------------------------------------------------------------|
A|-6-----5-------------------------------------------------------------------|
D|---------------------------------------------------------------------------|

[1:36]
e|---------------------------------------------------------------------------|
B|---------------------------------------------------------------------------|
G|---------------------------------------------------------------------------|
D|-4-3-------3-x6-9------8---------------------------------------------------|
A|-----6-5-6------9------8---------------------------------------------------|
D|----------------9------8---------------------------------------------------|

e|---------------------------------------------------------------------------|
B|---------4~-------6~-------4\6-4\3~----------------------------------------|
G|-3~------------------------------------------------------------------------|
D|-----------------------------------------6\8--8\11-8~--8\0-----------------|
A|---------------------------------------------------------------------------|
D|---------------------------------------------------------------------------|

e|---------------------------------------------------------------------------|
B|-----------------------11h12p11h12p11h12p11h12p11--------------------------|
G|-7---7-7-7--6-------13--------------------------13-------------------------|
D|-x---x-x-x--x--------------------------------------------------------------|
A|-5---5-5-5--6--------------------------------------------------------------|
D|---------------------------------------------------------------------------|

e|---------------------------------------------------------------------------|
B|---------------------------------------------------------------------------|
G|--7\0------7-7\0-------7-7-7-7-7-7-7-7-7-----------------------------------|
D|--x-x------x-x---------x-x-x-x-x-x-x-x-x-----------------------------------|
A|--5\0------5-5\0-------5-5-5-5-5-5-5-5-5-----------------------------------|
D|---------------------------------------------------------------------------|

[Chorus 2]
[Played twice]
e|---------------------------------------------------------------------------|
B|---------------------------------------------------------------------------|
G|---------------------------------------------------------------------------|
D|-1-----1----3----4----11----9-----8----6----8-----6----4-------------------|
A|-1-x12-1-x3-3-x3-4-x3-11-x3-9-x12-8-x6-6-x6-8-x12-6-x6-4-x6----------------|
D|-1-----1----3----4----11----9-----8----6----8-----6----4-------------------|

e|---------------------------------------------------------------------------|
B|---------------------------------------------------------------------------|
G|--------------------------8-8-8-8-8-8-10-10-10-10-10-10--------------------|
D|-8---8-------8---8--------x-x-x-x-x-x-x--x--x--x--x--x---------------------|
A|-8---8-------8---8--------6-6-6-6-6-6-8--8--8--8--8--8---------------------|
D|-8---8---4-6-8---8---4-6---------------------------------------------------|

[Instrumental/Bridge]
e|-T14-p6-h9-T11-p6-h9-T13-p6-h9-T11-p6-h9----|
B|--------------------------------------------| x12
G|--------------------------------------------|
D|--------------------------------------------|
A|--------------------------------------------|
D|--------------------------------------------|

e|-T16-p9-h11-T14-p9-h11-T16-p9-h11-T13-p9-h11----|
B|------------------------------------------------| x2
G|------------------------------------------------|
D|------------------------------------------------|
A|------------------------------------------------|
D|------------------------------------------------|

e|-T16-p9-h11-T14-p9-h11-T18-p9-h11-T16-p9-h11----|
B|------------------------------------------------| 
G|------------------------------------------------|
D|------------------------------------------------|
A|------------------------------------------------|
D|------------------------------------------------|

e|-T19-p9-h11-T19-p9-h11-T19-p9-h11-T19-p9-h11-T19~---|
B|----------------------------------------------------| 
G|----------------------------------------------------|
D|----------------------------------------------------|
A|----------------------------------------------------|
D|----------------------------------------------------|

[section immediately after the tapping]
e|--------------------|
B|--------------------|
G|-8-----11-----------|
D|-x-x12-x---x12------|
A|-6-----9------------|
D|--------------------|

[Chorus 3]
e|---------------------------------------------------------------------------|
B|---------------------------------------------------------------------------|
G|---------------------------------------------------------------------------|
D|-1-----1----3----4----11----9-----8----6----8-----6----4-------------------|
A|-1-x12-1-x3-3-x3-4-x3-11-x3-9-x12-8-x6-6-x6-8-x12-6-x6-4-x6----------------|
D|-1-----1----3----4----11----9-----8----6----8-----6----4-------------------|

e|---------------------------------------------------------------------------|
B|---------------------------------------------------------------------------|
G|--------------------------8-8-8-8-8-8-10-10-10-10-10-10--------------------|
D|-8---8-------8---8--------x-x-x-x-x-x-x--x--x--x--x--x---------------------|
A|-8---8-------8---8--------6-6-6-6-6-6-8--8--8--8--8--8---------------------|
D|-8---8---4-6-8---8---4-6---------------------------------------------------|

e|---------------------------------------------------------------------------|
B|---------------------------------------------------------------------------|
G|---------------------------------------------------------------------------|
D|----------------------------------x----------------------------------------|
A|---x12---x3---x3---x3----x3---x9--x----------------------------------------|
D|-1-----1----3----4----11----9-----x-6-8-9-9-9-9-9-9-11-9-8-9-8-6-----------|

e|---------------------------------------------------------------------------|
B|---------------------------------------------------------------------------|
G|---------------------------------------------------------------------------|
D|-4-----4-----4-------------------------------------------------------------|
A|-4-x24-4-x12-4-x12---------------------------------------------------------|
D|-4-----4-----4-------------------------------------------------------------|
         .     . palm mute

[Outro]
(I'm not totally confident about this section)
e|---------------------------------------------------------------------------|
B|---------------------------------------------------------------------------|
G|---------------------------------------------------------------------------|
D|---------4-6-7-3-4-6-----x2------------------------------------------------|
A|-1-3-4\6-------------4-6---------------------------------------------------|
D|---------------------------------------------------------------------------|

e|---------------------------------------------------------------------------|
B|---------------------------------------------------------------------------|
G|---------------------------------------------------------------------------|
D|---------4-6-7-3-4-6-----x2------------------------------------------------|
A|-0-1-4\6-------------4-6---------------------------------------------------|
D|---------------------------------------------------------------------------|

e|---------------------------------------------------------------------------|
B|---------------------------------------------------------------------------|
G|---------------------------------------------------------------------------|
D|---------4-6-7-3-4-6-----x2------------------------------------------------|
A|-1-3-4\6-------------4-6---------------------------------------------------|
D|---------------------------------------------------------------------------|

e|-------------------------|-------------------------------------|
B|-------------------------|-------------------------------------|
G|-------------------------|-------------------------------------|
D|---------4-6-7-3-4-6-----|---------4-6-7-3-4-6-----------------|
A|-0-1-4\6-------------4-6-|-0-1-4\6-------------4-6\0-----------|
D|-------------------------|-------------------------------------|



************************************
| h  Hammer-on
| \  Slide 
| p  Pull-off
| t  Tapping

************************************

            
            
Suggest correction
Creating personal tab
Creating personal tab
You can edit any tab online and save it as your Personal.

You can edit, replace or remove any tab part or add personal notes – all changes will be seen only by you.

Personal tabs can be accessed anytime from any device, even offline.
Learn more »
Give kudos to tab author, rate the tab!
1 2 3 4 5
comments
print report bad tab
guest
You may want to rate the tab now too:
select rating
Wanna post a correction for this tab? Suggest correction