Oops, an error
Loading. Please wait.

Texas Is Forever tab

version 3
version 3

Whole song

Interactive

1,330 views 21 this week
2 commentsread comments
1 2 3 4 5
x 8
add to favorites
×
Save as Personal and add changes to this tab that will be seen only by you. Learn more ›
×
You can save this tab as Personal to edit and correct it or add notes. All changes will be seen only by you. Learn more »
launch autoscroll
font size
0
reset
how to read this tab
guitar tuner
edit
Autoscroll
slow
fast
+/-
esc
set tempo
stop
"Texas Is Forever" tabs by Pierce The Veil based on the acoustic guitar cover by Pierce The Vegan on YouTube.
My acoustic playing sounds just like the records, mind you. Check it out for yourself if you're interested. :)
Pierce The Vegan: https://www.youtube.com/channel/UC3c-1ZDochB5sX-EMVW4PxQ
Beverly Valley - https://www.youtube.com/channel/UCb75kwZnHUZ9O7YzbRxzCpA

Sections of this tablature will house various accommodations, one of them being separate tab charts on ways to
play certain parts of the song differently and more accurately.
 
TUNING: DROP C#

************************************

| /         Slide up
| \         Slide down
| h         Hammer-on
| p         Pull-off
| p         ("p" also means "palm mute" if it's directly under a tab chart)
| ~         Let note ring ("~" usually means "vibrato," but not for this tab)
| [ ]       Natural harmonic
| [+ ]      Pinch harmonic
| ( )       Indicates notes on the 10th fret or higher when necessary
| |L-O-O-P| Indicates when specific tab charts contain select sets of notes that essentially repeat themselves

************************************


       
[Intro]

D#|---------------------------------------|
A#|---------------------------------------|
F#|---------------------------------------| 3x
C#|0-0-17-0-19-0-15-0-20-0-17-0-19-0-15-0-|
G#|---------------------------------------|
C#|---------------------------------------|
       
D#|---------------------------------|
A#|---------------------------------|                   
F#|10-10~~~10-10-10~~~10-9----------|
C#|x--x----x--x--x----x--x----------|
G#|8--8~~~~8--8--8~~~~8--7------7-8-|
C#|-------------------------/10-----|

D#|---------------------------------------|
A#|---------------------------------------|
F#|---------------------------------------| 3x
C#|0-0-17-0-19-0-15-0-20-0-17-0-19-0-15-0-|
G#|---------------------------------------|
C#|---------------------------------------|

D#|----------------------------------------|
A#|----------------------------------------|
F#|----10-----10---10-------9-------9----9-|
C#|8-8----8-8----8----10-10---10-10---10---|
G#|----------------------------------------|
C#|----------------------------------------|


[Verse 1]

"Can you tell that story? It's my favorite one..."
D#|--------------------------------------------------------------------------------------------|
A#|--------------------------------------------------------------------------------------------|
F#|--------------------------------------------------------------------------------------------|
C#|--------------------------------------------------------------------------------------------|
G#|----------------------------------------------1--1-1-1-1-1~~1--1--1--1--1-1-1-1-1~~1~~0~~0~~|
C#|0--0-0-0-0-0~~0--0--0--3--3-3-3-3-3~~3--3--3------------------------------------------------|
      p p p p                p p p p                p p p p                p p p p

"F(bleep)cking disappointment, I can't entertain you anymore..."
D#|--------------------------------------------------------------------------|
A#|--------------------------------------------------------------------------|
F#|----------------------------------------------5-5~~5-5-5~~5-4-4~~4-4-4/---|
C#|----------------------------------------------x-x--x-x-x--x-x-x--x-x-x----|
G#|----------------------------------------------3-3~~3-3-3~~3-2-2~~2-2-2/---|
C#|0--0-0-0-0-0~~0--0--0--3--3-3-3-3-3~~3--3--3------------------------------|
      p p p p                p p p p                       

"Stupid............states of ......mind.............everyone..."          "Everyone"
      8 strums        8 strums        8 strums                     (More accurate chords.)
D#|----------------------------------------------------------|          D#|-x--x--x-|
A#|----------------------------------------------------------|          A#|-5--5--5-|
F#|--------------------------------3-3-3-3-3-3-3-3--2--2--2--|          F#|-5--5--5-|
C#|0-0-0-0-0-0-0-0-3-3-3-3-3-3-3-3-3-3-3-3-3-3-3-3--2--2--2--|          C#|-2--2--2-|
G#|0-0-0-0-0-0-0-0-3-3-3-3-3-3-3-3-1-1-1-1-1-1-1-1--0--0--0--|          G#|-0--0--0-|
C#|0-0-0-0-0-0-0-0-3-3-3-3-3-3-3-3---------------------------|          C#|---------|

"Punishing me all the time..."
(This is what I played in my cover - a more accurate tab is right below.)
D#|------------------------------------------------|
A#|-------------------5~~~~~-----------------------|
F#|-----10~7~~-----5~~~~~~~~-------3-2-0-2-0-------| 
C#|--10~~~~~----5~~~~~~~~~~~-----------------3-2-0-|
G#|8~~~~~~~~--8~~~~~~~~~~~~~-----------------------|
C#|-------------------------8~~~~~\----------------|



"Punishing me all the time..." 
(The more accurate tab for this.)
D#|------------------------------------------------|
A#|-----7~~~~~-------------------------------------| 
F#|--------7~~-----5~~~~~----------3-2-0-2-0-------| 
C#|--7~~~~~~~~--5~~~~~5~~--------------------3-2-0-| 
G#|5~~~~~~~~~~8~~~~~~~~~~--------------------------| 
C#|----------------------10-8~~~~~\----------------| 
      

[Pre-Chorus 1]

"But don't cross your boundaries and think that's it's all hunky dory..."
(Below this entire "1ST PRE-CHORUS" section is more accurate (and yes) much harder way to play this section.) 
              16 strums                      16 strums             
D#|----------------------------------------------------------------|
A#|----------------------------------------------------------------|
F#|3-3-3-3-3-3-3-3-3-3-3-3-3-3-3-3---------------------------------|
C#|3-3-3-3-3-3-3-3-3-3-3-3-3-3-3-3-5-5-5-5-5-5-5-5-5-5-5-5-5-5-5-5-|
G#|1-1-1-1-1-1-1-1-1-1-1-1-1-1-1-1-5-5-5-5-5-5-5-5-5-5-5-5-5-5-5-5-|
C#|--------------------------------5-5-5-5-5-5-5-5-5-5-5-5-5-5-5-5-|

"Misguided by darkness and lost on the road!"
           16 strums                       13 strums         3strums     
D#|----------------------------------------------------------------|
A#|----------------------------------------------------------------|
F#|----------------------------------------------------------5-5-5-|
C#|0-0-0-0-0-0-0-0-0-0-0-0-0-0-0-0-3-3-3-3-3-3-3-3-3-3-3-3-3-5-5-5-|
G#|0-0-0-0-0-0-0-0-0-0-0-0-0-0-0-0-3-3-3-3-3-3-3-3-3-3-3-3-3-3-3-3-|
C#|0-0-0-0-0-0-0-0-0-0-0-0-0-0-0-0-3-3-3-3-3-3-3-3-3-3-3-3-3-------|
   p p p p p p p p p p p p p p p p p p p p p p p p p p p p p

"I'm such a sucker for the rain!.. Here we are..."
               16 strums              8 strums     3 strums
D#|-------------------------------------------------------------|
A#|------------------------------------------------5---5---5----|
F#|3-3-3-3-3-3-3-3-3-3-3-3-3-3-3-3-5-5-5-5-5-5-5-5-x---x---x----|
C#|3-3-3-3-3-3-3-3-3-3-3-3-3-3-3-3-5-5-5-5-5-5-5-5-2---2---2----|
G#|1-1-1-1-1-1-1-1-1-1-1-1-1-1-1-1-3-3-3-3-3-3-3-3--------------|
C#|-------------------------------------------------------------|
                                   p p p p p p p p


        [Pre-Chorus 1]

"But don't cross your boundaries and think that's it's all hunky dory..."
(And here you have it - a more accurate, much harder way to play this section.)
D#|----------------|
A#|----------------|
F#|----------------| 4x
C#|2-3-2-0-5-3-2-3-|
G#|----------------|
C#|----------------|

"Misguided by darkness and lost on the road!"
D#|----------------|                D#|----------------|       
A#|----------------|                A#|----------------|
F#|----------------| 3x             F#|----------------|   
C#|2-3-2-0-5-3-2-3-|                C#|2-3-2-0-5-5-5-5-|
G#|----------------|                G#|----------------|
C#|----------------|                C#|----------------|

"I'm such a sucker for the rain!...................... Here we are..."
  |L---O---O--P--||L---O---O--P--|
D#|--------------------------------3--3--3--x--3-3-3--x--------------|
A#|--------------------------------5--5--5--5~~5-5-5--5-8---3---5----|
F#|-----------------------------------------5~~-------5-x---5---x----|
C#|2-3-2-0-5-3-2-3-2-3-2-0-5-3-2-3----------------------5-------2----|
G#|------------------------------------------------------------------|
C#|------------------------------------------------------------------|



[Chorus 1]

     "Crashing..once again....into the center of your moonlit......face our caved-in ribs..."
D#|------------------------------------------------------------------------------------------------------|
A#|------------------------------------------------------------------------------------------------------|
F#|------------------------------------------------------------------------------------------------------|
C#|------------------------------------------------------------------------------------------------------|
G#|----------------------------1-1--1-1-1-1--1--0--0------------------------------3-3--3-3-3-2--2--2--2--|
C#|0--0-0--0-0--3--3--3--3--3-------------------------0--0-0--0-0--3--3--3--3--3-------------------------|

"Your tears, they fall on my tongue, and our lips are letting go as we laid on the road..."
(Below this tab chart are two additional ways to play this part that chronologically increase
in both difficulty and accuracy.) 
D#|---------------------------------------------------5~~5~~x-x-x--x--x-x-x--------|
A#|---------------------------------------------------6~~6~~x-x-5~~5~~x-x-3~~~~~~~~|
F#|---------------------------------------------------7~~7~~x-x-5~~5~~x-x-3~~~~~~~~|
C#|---------------------------------------------------7~~7~~x-x-5~~5~~x-x-3~~~~~~~~|
G#|----------------------------1-1--1-1-1-1--1--0--0--5~~5~~x-x-3~~3~~x-x-1~~~~~~~~|
C#|0--0-0--0-0--3--3--3--3--3------------------------------------------------------|

"Your tears, they fall on my tongue, and our lips are letting go as we laid on the road..."
(Below this tab chart is the last way to play this part that and it's the most difficult and accurate.) 
D#|---------------------------------------------------5~~~~~~~~~-x-------------------|
A#|---------------------------------------------------6~~~~~~~~~-5~~~~~~~~~-3~~~~~~~~|
F#|---------------------------------------------------7~~~~~~~~7\5~~~~~5~~~\3~~~~~~~~|
C#|---------------------------------------------------7~~~~~7~~~\5~~~~~~~~5\3~~~~~~~~|      
G#|----------------------------1-1--1-1-1-1--1--0--0--5~~5~~~~~~\3~~3~~~~~~\1~~~~~~~~|
C#|0--0-0--0-0--3--3--3--3--3--------------------------------------------------------|

"Your tears, they fall on my tongue, and our lips are letting go as we laid on the road..."
(The most difficult and accurate way - good luck, haha. :D)
D#|---------------------------------------------------1~~~~~~~~~-x-------------------|
A#|---------------------------------------------------3~~~~~~~~3~1~~~~~1~~--3~~~~~~~~|
F#|---------------------------------------------------2~~~~~2~~~~0~~~~~~~~--3~~~~~~~~|
C#|---------------------------------------------------0~~3~~~~~~~2~~~~~~~~5\3~~~~~~~~|      
G#|----------------------------1-1--1-1-1-1--1--0--0---~~~~~~~~~~3~~3~~~~~--1~~~~~~~~|
C#|0--0-0--0-0--3--3--3--3--3--------------------------------------------------------|


[Post-Chorus]

D#|---------------------------------------|
A#|---------------------------------------|
F#|---------------------------------------| 3x
C#|0-0-17-0-19-0-15-0-20-0-17-0-19-0-15-0-|
G#|---------------------------------------|
C#|---------------------------------------|
       
(Played in my acoustic guitar cover.)            (A more accurate tab.)
D#|--------------------------------|        D#|-----------------------------|
A#|--------------------------------|        A#|-----------------------------|      
F#|--------------------------------|        F#|-----------------------5~~---|
C#|--------8~~~~~----------10~~----|        C#|--------8~~---------5~~~~~5--|
G#|-----8~~~~~8~~------10~~~~~~10--|        G#|-----8~~~~~8-----3~~~~~~~~---|
C#|0-8~~~~~~~~~~~0-10~~~~~~~~~~----|        C#|0-8~~~~~~~~---5~~~~~~~~~~~---|



[Verse 2]

"Pull the trigger tight and watch our distances explode. If Texas is forever, where's your home sweet home?"
                                  |.......13 strums.......|      |....9 strums...| 
D#|--------------------------------------------------------------------------------------|
A#|--------------------------------------------------------------------------------------|
F#|7~~~~~~~~~~5~~~~~~9~~~~10~------------------------------------------------------------|
C#|x----------x------x----x--0-0--0-0-0-0-0-0-0-0-0-0-0-0-0-3-3--3-3-3-3-3-3-3-3-3-0-2-3-|
G#|5~~~~~~~~~~3~~~~~~7~~~~9~~0-0--0-0-0-0-0-0-0-0-0-0-0-0-0-1-1--1-1-1-1-1-1-1-1-1-------|
C#|--------------------------0-0--0-0-0-0-0-0-0-0-0-0-0-0-0-1-1--1-1-1-1-1-1-1-1-1-------|

"If anything should happen to me, I want you to know I've love you since ever since then."
D#|-----------------------------------------------------------------------|
A#|-----------------------------------------------------------------------|
F#|-----------------------------------------------------------------------|
C#|------------------------------5~~~~8~~~~7~~~~5~~~\3~~~\2~~~~0~~~~~~~~~~|
G#|5~~~~0~~~~7~~~~8~~~~7~~~\3~~~~------------------------------1~~~~~~~~~~|
C#|-----------------------------------------------------------------------|


[Pre-Chorus 2]

"But don't dance around me, I know what it means - no communication can..."
(Palm mute every note except the first two notes of every chord change)
(Below this "2ND PRE-CHORUS" section is a separate tab much like the more accurate and harder
tab of the 1st pre-chorus section.)
             16 strums                         16 strums                      16 strums
D#|------------------------------------------------------------------------------------------------|
A#|------------------------------------------------------------------------------------------------|
F#|3-3-3-3-3-3-3-3-3-3-3-3-3-3-3-3-----------------------------------------------------------------|
C#|3-3-3-3-3-3-3-3-3-3-3-3-3-3-3-3-5-5-5-5-5-5-5-5-5-5-5-5-5-5-5-5-0-0-0-0-0-0-0-0-0-0-0-0-0-0-0-0-|
G#|1-1-1-1-1-1-1-1-1-1-1-1-1-1-1-1-5-5-5-5-5-5-5-5-5-5-5-5-5-5-5-5-0-0-0-0-0-0-0-0-0-0-0-0-0-0-0-0-|
C#|--------------------------------5-5-5-5-5-5-5-5-5-5-5-5-5-5-5-5-0-0-0-0-0-0-0-0-0-0-0-0-0-0-0-0-|
       p p p p p p p p p p p p p p     p p p p p p p p p p p p p p     p p p p p p p p p p p p p p

    Not be received................I'm such a sucker for the rain..."
   |.....12 strums.......|         |..........16 strums..........| |..........16 strums..........|
D#|------------------------------------------------------------------------------------------------|
A#|------------------------------------------------------------------------------------------------|
F#|------------------------5-5-5-5-3-3-3-3-3-3-3-3-3-3-3-3-3-3-3-3-3-3-3-3-3-3-3-3-3-3-3-3-3-3-3-3-|
C#|3-3-3-3-3-3-3-3-3-3-3-3-5-5-5-5-3-3-3-3-3-3-3-3-3-3-3-3-3-3-3-3-0-0-0-0-2-2-2-2-3-3-3-3-5-5-5-5-|
G#|3-3-3-3-3-3-3-3-3-3-3-3-3-3-3-3-1-1-1-1-1-1-1-1-1-1-1-1-1-1-1-1-3-3-3-3-3-3-3-3-3-3-3-3-3-3-3-3-|
C#|3-3-3-3-3-3-3-3-3-3-3-3-------------------------------------------------------------------------|
   p p p p p p p p p p p p p p p p p p p p p p p p p p p p p p p p
                                   ^^^^^^^^^^^^^^^^^^^^^^^^^^^^^^^
                                   |||||||||||||||||||||||||||||||
 I didn't palm mute my strumming on the third chord, (designated by arrows) but I was supposed to.



        [Pre-Chorus 2]

"But don't dance around me, I know what it means - no communication cannot be received..."
(And here you have it - a more accurate, much harder way to play this section.)
D#|----------------|
A#|----------------|
F#|----------------| 8x
C#|2-3-2-0-5-3-2-3-|
G#|----------------|
C#|----------------|

      "I'm such a sucker for the rain..." "
   |..........16 strums..........| |..........16 strums..........|
D#|----------------------------------------------------------------|
A#|----------------------------------------------------------------|
F#|--------------------------------3-3-3-3-3-3-3-3-3-3-3-3-3-3-3-3-|
C#|3-3-3-3-3-3-3-3-3-3-3-3-3-3-3-3-0-0-0-0-2-2-2-2-3-3-3-3-5-5-5-5-|
G#|--------------------------------3-3-3-3-3-3-3-3-3-3-3-3-3-3-3-3-|
C#|----------------------------------------------------------------|



HIGH-PASSED 2ND PRE-CHORUS RIFF:

"Yeah.........................Ooooooooohhhhh. Here we are!"
D#|------------------------------------------------|
A#|------------------------------------------------|
F#|------------------------------------------------|
C#|------------------------------------------------|
G#|----------------------------1-1--1-1-1-1--1--0--|
C#|0--0-0--0-0--3--3--3--3--3----------------------|



[Chorus 2]

     "Crashing..once again....into the center of your moonlit......face our caved-in ribs..."
D#|------------------------------------------------------------------------------------------------------|
A#|------------------------------------------------------------------------------------------------------|
F#|------------------------------------------------------------------------------------------------------|
C#|------------------------------------------------------------------------------------------------------|
G#|----------------------------1-1--1-1-1-1--1--0--0------------------------------3-3--3-3-3-2--2--2--2--|
C#|0--0-0--0-0--3--3--3--3--3-------------------------0--0-0--0-0--3--3--3--3--3-------------------------|

"Your tears, they fall on my tongue, and our lips are letting go as we laid on the road..."
(Below this tab chart are two additional ways to play this part that chronologically increase
in both difficulty and accuracy.) 
D#|---------------------------------------------------5~~5~~x-x-x--x--x-x-x--------|
A#|---------------------------------------------------6~~6~~x-x-5~~5~~x-x-3~~~~~~~~|
F#|---------------------------------------------------7~~7~~x-x-5~~5~~x-x-3~~~~~~~~|
C#|---------------------------------------------------7~~7~~x-x-5~~5~~x-x-3~~~~~~~~|
G#|----------------------------1-1--1-1-1-1--1--0--0--5~~5~~x-x-3~~3~~x-x-1~~~~~~~~|
C#|0--0-0--0-0--3--3--3--3--3------------------------------------------------------|

"Your tears, they fall on my tongue, and our lips are letting go as we laid on the road..."
(Below this tab chart is the last way to play this part that and it's the most difficult and accurate.) 
D#|---------------------------------------------------5~~~~~~~~~-x-------------------|
A#|---------------------------------------------------6~~~~~~~~~-5~~~~~~~~~-3~~~~~~~~|
F#|---------------------------------------------------7~~~~~~~~7\5~~~~~5~~~\3~~~~~~~~|
C#|---------------------------------------------------7~~~~~7~~~\5~~~~~~~~5\3~~~~~~~~|      
G#|----------------------------1-1--1-1-1-1--1--0--0--5~~5~~~~~~\3~~3~~~~~~\1~~~~~~~~|
C#|0--0-0--0-0--3--3--3--3--3--------------------------------------------------------|

"Your tears, they fall on my tongue, and our lips are letting go as we laid on the road..."
(The most difficult and accurate way - good luck, haha. :D)
D#|---------------------------------------------------1~~~~~~~~~-x-------------------|
A#|---------------------------------------------------3~~~~~~~~3~1~~~~~1~~--3~~~~~~~~|
F#|---------------------------------------------------2~~~~~2~~~~0~~~~~~~~--3~~~~~~~~|
C#|---------------------------------------------------0~~3~~~~~~~2~~~~~~~~5\3~~~~~~~~|      
G#|----------------------------1-1--1-1-1-1--1--0--0---~~~~~~~~~~3~~3~~~~~--1~~~~~~~~|
C#|0--0-0--0-0--3--3--3--3--3--------------------------------------------------------|



[Bridge]

(Below this entire "Bridge" section is a separate "Bridge" tab the contains a truer tonality of the
low three-string C# power chord as well as a necessary movement of the octave chord on the 
8th fret of the G# string to the 3rd fret of the C# string (the 4th string.) 

D#|-----------------------------------------3~~~~~~~~|
A#|-----------------------------5~~~~~~~~~~~~~~~~~5~~|
F#|-----------------------0--2~~------5~~~~~~~~~~~~~~| 3x
C#|0~~~~~~~~~~~~~~~~~~2/3----------3~~~~~3~~~~~3~~~~~|
G#|0~~~~~~~~~~~~~~~~~~~~~~~~~~~~~~~~~~~~~~~~~~~~~~~~~|
C#|0~~~~~~~~~~~~~~~~~~~~~~~~~~~~~~~~~~~~~~~~~~~~~~~~~|
 

D#|-----------------------------------------3~~~~~~~~|
A#|-----------------------------5~~~~~~~~~~~~~~~~~5~~|
F#|-----------------------0--2~~------5~~~~~~~~~~~~~~|
C#|0---0---0---0---0--2h3~---------3~~~~~3~~~~~3~~~~~|
G#|0---0---0---0---0---------------------------------|
C#|0---0---0---0---0---------------------------------|
   p   p   p   p   p

                                           "Don't!"
D#|-----------------------------------------3~~~~~~~~|
A#|-----------------------------5~~~~~~~~~~~~~~~~~5~~|
F#|----10----------10-----0--2~~------5~~~~~~~~~~~~~~|
C#|0-0-x---0----0--x--2h3~---------3~~~~~3~~~~~3~~~~~|
G#|0-0-8---0----0--8---------------------------------|
C#|0-0-----0----0------------------------------------|
   p p     p    p

                                           "Chase!"
D#|--------------------------------------------------|
A#|-----------------------------5~~~~/6~~~~~---------|
F#|----------------10-----0--2~~-------~~~~~5~~~~\2~~|
C#|0---0-0---0-0---x--2h3~---------3~~~~~3~~---------|
G#|0---0-0---0-0---8---------------------------------|
C#|0---0-0---0-0-------------------------------------|
   p   p p   p p 

                                           "Your!"
D#|-----------------------------------------3~~~~~~~~|
A#|-----------------------------5~~~~~~~~~~~~~~~~~5~~|
F#|----------------10-----0--2~~------5~~~~~~~~~~~~~~|
C#|0---0-0---0-0---x--2h3~---------3~~~~~3~~~~~3~~~~~|
G#|0---0-0---0-0---8---------------------------------|
C#|0---0-0---0-0-------------------------------------|
   p   p p   p p 

                                           "Nightmares!"
D#|----------------------------------------------------|
A#|-----------------------------5~~--------------------|
F#|----------------10-----0--2~~------------5~~~~\2~~~~|
C#|0---0-0---0-0---x--2h3~---------0~~0~~~~~~~~~~~~~~~~|
G#|0---0-0---0-0---8---------------0~~0~~~~~~~~~~~~~~~~|
C#|0---0-0---0-0-------------------0~~0~~~~~~~~~~~~~~~~|
   p   p p   p p 

                                                                                       "Yeah!"
D#|-----------------------------------------3~~~~~~~~~~~~~~~~~~~~~~~----3~5~/8~~6~5\3~~5\|
A#|-----------------------------5~~~~~~~~~~~~~~~~~5~~~~~~~~~~~~~~~~~5/6------------------|
F#|-----------------------0--2~~------5~~~~~~~~~~~~~~~~~~~~~~~~~~~~~---------------------|
C#|-------0~~0~~0~~0--2h3~---------3~~~~~3~~~~~3~~~~~~~~~~~~~~~~~~~~---------------------|
G#|-------0~~0~~0~~0---------------------------------------------------------------------|
C#|-------0~~0~~0~~0---------------------------------------------------------------------|



        [Bridge]

(This is the separate "Bridge" tab that contains a truer tonality of the
low three-string C# power chord as well as a necessary movement of the octave chord on the 
8th fret of the G# string to the 3rd fret of the C# string (the 4th string.) And yes, it's harder.)
D#|-----------------------------------------3~~~~~~~~|
A#|-----------------------------5~~~~~~~~~~~~~~~~~5~~|
F#|2~~~~~~~~~~~~~~~~~~----0--2~~------5~~~~~~~~~~~~~~| 3x
C#|3~~~~~~~~~~~~~~~~~~2/3----------3~~~~~3~~~~~3~~~~~|
G#|0~~~~~~~~~~~~~~~~~~~~~~~~~~~~~~~~~~~~~~~~~~~~~~~~~|
C#|0~~~~~~~~~~~~~~~~~~~~~~~~~~~~~~~~~~~~~~~~~~~~~~~~~|


D#|-----------------------------------------3~~~~~~~~|
A#|-----------------------------5~~~~~~~~~~~~~~~~~5~~|
F#|2---2---2---2---2------0--2~~------5~~~~~~~~~~~~~~|
C#|3---3---3---3---3--2h3~---------3~~~~~3~~~~~3~~~~~|
G#|0---0---0---0---0---------------------------------|
C#|0---0---0---0---0---------------------------------|
   p   p   p   p   p

                                           "Don't!"
D#|-----------------------------------------3~~~~~~~~|
A#|----6-----------6------------5~~~~~~~~~~~~~~~~~5~~|
F#|2-2-x---2----2--x------0--2~~------5~~~~~~~~~~~~~~|
C#|3-3-3---3----3--3--2h3~---------3~~~~~3~~~~~3~~~~~|
G#|0-0-----0----0------------------------------------|
C#|0-0-----0----0------------------------------------|
   p p     p    p

                                           "Chase!"
D#|--------------------------------------------------|
A#|----------------6------------5~~~~/6~~~~~---------|
F#|2---2-2---2-2---x------0--2~~-------~~~~~5~~~~\2~~|
C#|3---3-3---3-3---3--2h3~---------3~~~~~3~~---------|
G#|0---0-0---0-0-------------------------------------|
C#|0---0-0---0-0-------------------------------------|
   p   p p   p p 

                                           "Your!"
D#|-----------------------------------------3~~~~~~~~|
A#|----------------6------------5~~~~~~~~~~~~~~~~~5~~|
F#|2---2-2---2-2---x------0--2~~------5~~~~~~~~~~~~~~|
C#|3---3-3---3-3---3--2h3~---------3~~~~~3~~~~~3~~~~~|
G#|0---0-0---0-0-------------------------------------|
C#|0---0-0---0-0-------------------------------------|
   p   p p   p p 

                                           "Nightmares!"
D#|----------------------------------------------------|
A#|----------------6------------5~~--------------------|
F#|2---2-2---2-2---x------0--2~~---2--2-----5~~~~\2~~~~|
C#|3---3-3---3-3---3--2h3~---------3~~3~~~~~-----------|
G#|0---0-0---0-0-------------------0~~0~~~~~~~~~~~~~~~~|
C#|0---0-0---0-0-------------------0~~0~~~~~~~~~~~~~~~~|
   p   p p   p p 

                                                                                       "Yeah!"
D#|-----------------------------------------3~~~~~~~~~~~~~~~~~~~~~~~----3~5~/8~~6~5\3~~5\|
A#|-----------------------------5~~~~~~~~~~~~~~~~~5~~~~~~~~~~~~~~~~~5/6------------------|
F#|-------2--2--2--2------0--2~~------5~~~~~~~~~~~~~~~~~~~~~~~~~~~~~---------------------|
C#|-------3~~3~~3~~3--2h3~---------3~~~~~3~~~~~3~~~~~~~~~~~~~~~~~~~~---------------------|
G#|-------0~~0~~0~~0---------------------------------------------------------------------|
C#|-------0~~0~~0~~0---------------------------------------------------------------------|


[Pre-Chorus 3]

(I had to condense this part - just strum a simple, continuous down-up pattern for every chord.)
(Right below this is a separate "3RD PRE-CHORUS" tab containing more accuracy and difficulty.)
       "Here we aaaaaaaaaarrrrrrreeeee!"

32 strums    16 strums    16 strums  
D#|----|     D#|----|     D#|----|                 
A#|----|     A#|----|     A#|-11-|                  
F#|-10-|     F#|-12-|     F#|-x--|                  
C#|-10-|     C#|-10-|     C#|-8--|
G#|-8--|     G#|-8--|     G#|----|                 
C#|-8--|     C#|-8--|     C#|----|                 
               


        [Pre-Chorus 3]

       "Here we aaaaaaaaaaaaaaaaaaarrrrrrrrreeeee!"
(The separate "3RD PRE-CHORUS" tab containing more accuracy and difficulty - it 
puts a stretch on your fingers, and hair on your chest.)
32 strums    8 strums     8 strums     16 strums  
D#|----|     D#|----|     D#|----|     D#|----|                 
A#|----|     A#|----|     A#|----|     A#|-11-|                  
F#|-10-|     F#|-12-|     F#|-14-|     F#|-x--|                  
C#|-10-|     C#|-10-|     C#|-10-|     C#|-8--|
G#|-8--|     G#|-8--|     G#|-8--|     G#|----|                 
C#|-8--|     C#|-8--|     C#|-8--|     C#|----|                 



[Chorus 3]

     "Crashing..once again....into the center of your moonlit......face our caved-in ribs..."
D#|------------------------------------------------------------------------------------------------------|
A#|------------------------------------------------------------------------------------------------------|
F#|------------------------------------------------------------------------------------------------------|
C#|------------------------------------------------------------------------------------------------------|
G#|----------------------------1-1--1-1-1-1--1--0--0------------------------------3-3--3-3-3-2--2--2--2--|
C#|0--0-0--0-0--3--3--3--3--3-------------------------0--0-0--0-0--3--3--3--3--3-------------------------|

"Your tears, they fall - our lips are locked in lemon groves and I can never let them, never let them..."
D#|------------------------------------------------------------------------------------------------------|
A#|------------------------------------------------------------------------------------------------------|
F#|------------------------------------------------------------------------------------------------------|
C#|------------------------------------------------------------------------------------------------------|
G#|----------------------------1-1--1-1-1-1--1--0--0------------------------------3-3--3-3-3-2--2--12\---|
C#|0--0-0--0-0--3--3--3--3--3-------------------------0--0-0--0-0--3--3--3--3--3-------------------------|


[Outro]

"Grow!................................Side of....the...road..."
(This is what I played in my acoustic guitar cover - a more accurate and harder tab is right below this one.)
D#|--------------------------------------------------------------------------------------------------------|
A#|--------------------------------------------------------------------------------------------------------|
F#|----------------------------3--3--3-3-3-3--3--3--3---------------3--3--3--3--3--5--5--5-5-5-5--5--5--5--|
C#|0--0-0--0-0--3--3--3--3--3--3--3--3-3-3-3--3--3--3--0--0-0--0-0--3--3--3--3--3--5--5--5-5-5-5--5--5--5--|
G#|0--0-0--0-0--3--3--3--3--3--1--1--1-1-1-1--1--0--0--0--0-0--0-0--3--3--3--3--3--3--3--3-3-3-2--2--2--2--|
C#|0--0-0--0-0--3--3--3--3--3--------------------------0--0-0--0-0--3--3--3--3--3--------------------------|

"Grow!................................Side of....the...road..."
(Harder, more accurate tab.)
D#|--------------------------------------------------------------------------------------------------------|
A#|--------------------------------------------------------------------------------------------------------|
F#|5--5-5--5-5--5--5--5--5--5--5--5--5-5-5-5--5--5--5--5--5-5--5-5--5--5--5--5--5--5--5--5-5-5-4--4--4--4--|
C#|0--0-0--0-0--3--3--3--3--3--3--3--3-3-3-3--3--2--2--0--0-0--0-0--3--3--3--3--3--5--5--5-5-5-4--4--4--4--|
G#|0--0-0--0-0--3--3--3--3--3--1--1--1-1-1-1--1--0--0--0--0-0--0-0--3--3--3--3--3--3--3--3-3-3-2--2--2--2--|
C#|0--0-0--0-0--3--3--3--3--3--------------------------0--0-0--0-0--3--3--3--3--3--------------------------|

"So take a deep breath and chase it with mine!"
  |...8 strums...| |...9 strums....| |........15 strums..........|
D#|----------------------------------------------------------------|
A#|----------------------------------------------------------------|
F#|----------------------------------------------------------------|
C#|----------------------------------------------------------------|
G#|----------------------------------1-1-1-1-1-1-1-1-1-1-1-1-1-1-1-|
C#|0-0-0-0-0-0-0-0-3-3-3-3-3-3-3-3-3-------------------------------|

"Your southern hospitality won't mind!"
                                                                               (The ending chord houses 
  |...8 strums...| |..8 strums...| |..8 strums...| |..8 strums...|            a tonality more like these.)
D#|------------------------------------------------------------------|              D#|---| D#|---|
A#|------------------------------------------------------------------|              A#|---| A#|-7-|
F#|------------------------------------------------------------------|              F#|-7-| F#|-7-|
C#|----------------------------------------------------------------0-|              C#|-0-| C#|-0-|
G#|--------------------------------3-3-3-3-3-3-3-3-2-2-2-2-2-2-2-2-0-|              G#|-0-| G#|-0-|
C#|0-0-0-0-0-0-0-0-3-3-3-3-3-3-3-3---------------------------------0-|              C#|-0-| C#|-0-|



I really, really hope this helps you out and you like it. If you're a UG author, you enjoy my tabs and you up 
vote them, you'll make it so much easier for me to publicize future stellar tablature like this. 
Myself and many others will be very grateful for your support. :)

My name's Demetrius - again, my YouTube channels: 
Pierce The Vegan - https://www.youtube.com/channel/UC3c-1ZDochB5sX-EMVW4PxQ
Beverly Valley - https://www.youtube.com/channel/UCb75kwZnHUZ9O7YzbRxzCpA

And again, here's my "Texas Is Forever" acoustic guitar cover: https://www.youtube.com/watch?v=qqtJ42a65eg



LYRICS UP IN THIS PIECE:


[Intro]

(Here we are)


[Verse 1]

Can you tell that story? It's my favorite one,
You fucking disappointment, I can't entertain you anymore.
These stupid states of mind,
Everyone punishing me all the time.
Why?


[Pre-Chorus]

But don't cross your boundaries and think that it's cool,
Misguided by darkness and lost on the road.
But I'm such a sucker for the rain!


[Chorus]

Here we are,
Crashing once again!
Into the center of your moonlit face, our caved-in ribs.
Your tears they fall on my tongue, and our lips are letting go,
As we laid on the side of the road.
Go!


[Verse 2]

Pull the trigger tight and watch our distances explode,
If Texas is forever, where's your home sweet home?
If anything should happen to me I want you to know,
I've loved you since ever since then.


[Pre-Chorus]

Don't dance around me I know what it means,
No communication, cannot be received.
But I'm such a sucker for the rain!


[Chorus]

Here we are,
Crashing once again!
Into the center of your moonlit face, our caved-in ribs.
Your tears they fall on my tongue, and our lips are letting go,
As we laid on the side of the road.


[Bridge]

Don't chase your nightmares!


[Outro]

Here we are...
Crashing once again!
Into the center of your moonlit face, our caved in ribs.
Your tears they fall our lips are locked in lemon groves,
And I can never let, never let them grow them grow.
On the side of the road.
So take a deep breath and chase it with mine,
Your southern hospitality won't mind!

            
            
Suggest correction
Creating personal tab
Creating personal tab
You can edit any tab online and save it as your Personal.

You can edit, replace or remove any tab part or add personal notes – all changes will be seen only by you.

Personal tabs can be accessed anytime from any device, even offline.
Learn more »
comments
print report bad tab
2 comments total.
+1 reply
KeepBih 10 Aug 18, 2016 08:32 PM

Very Good :D

0 reply
PierceTheVegan 181 Aug 19, 2016 12:37 PM

Thank you so very kindly - I super appreciate you. :) I work so hard on all my content. I've received a few requests for the chords in my "I'm Low On Gas And You Need A Jacket" acoustic cover - I plan on producing tabs for it within a week if you're at all interested. :)

guest
You may want to rate the tab now too:
select rating
Wanna post a correction for this tab? Suggest correction