Oops, an error
Loading. Please wait.

The Sky Under The Sea tab

version 2
version 2

Whole song

8,360 views 30 this week
3 commentsread comments
1 2 3 4 5
x 7
add to favorites
×
Save as Personal and add changes to this tab that will be seen only by you. Learn more ›
×
You can save this tab as Personal to edit and correct it or add notes. All changes will be seen only by you. Learn more »
launch autoscroll
font size
0
reset
how to read this tab
guitar tuner
edit
Autoscroll
slow
fast
+/-
esc
set tempo
stop
Author
-----------------------------------------------------------------------------
                             Sky Under The Sea – Pierce The Veil
-----------------------------------------------------------------------------
Tabbed by:Snowflamestr

Sorry but some parts are missing :( 
corrections are welcomed
I want apologize to  Kssmycnvrs for taking some parts of his tab 
without asking him.

Tuning: half step down

Introx2 (continues to play this during the first verse)x2
e|--------------------------------------------------------------------------|
B|-------88----------88----------77----------77-----------------------------|
G|----99----99----99----99----88----88----88----88--------------------------|
D|--------------------------------------------------------------------------|
A|-77----------77----------66----------66-----------------------------------|
D|--------------------------------------------------------------------------|

Chorus                        1st           2nd... then the "1st" again
e|-----19-17---14-15-17-15-14----|---19-17--14-15-15-14--|
B|--17-------17---------------15-|-17-----17-----------15|
G|-------------------------------|-----------------------|
D|-------------------------------|-----------------------|
A|-------------------------------|-----------------------|
D|-------------------------------|-----------------------|

e|-------------------------15--14-15-14-------------|
B|12-12-15-15-17-17--12-15--------------15-17-------|
G|--------------------------------------------------|
D|--------------------------------------------------|
A|--------------------------------------------------|
D|--------------------------------------------------|

1:04(oh my god)
e|--------------------------------------------------------------|
B|--8-10-12-----8-10----------------8-10-12---8-10--------------|
G|-----------11--------8-7-5-7-5-4----------11------8~-7-4-5-7--|
D|--------------------------------------------------------------|
A|--------------------------------------------------------------|
D|--------------------------------------------------------------|

Around 1:38                            x2 play this several times
e|----------------------------------------|----------------------|
B|----15--------15-------15-------15------|----------------------|
G|-16----16--14----14-12----14-11----14---|--14-h16-16--14-h16-16|
D|----------------------------------------|----------------------|
A|----------------------------------------|----------------------|
D|----------------------------------------|----------------------|

2:05 Thank “Kssmycnvrs” for this part                   (fourth time)
e|----------15-12----------|----------------------------|-------------------|
B|-------12-------16-13-12-|----------------------------|-------------------|
G|----12-------------------|-14-12----12-14-12-11-12(x3)|-14-12----12-14-11b|
D|-14----------------------|-------14-------------------|-------14----------|
A|-------------------------|----------------------------|-------------------|
D|-------------------------|----------------------------|-------------------|






2:17                                                                 x2
e|---------------------------------19-17-19-17-19-17-19-17--15x8-14x8-|
B|-12x8-15x4-17x4--11x8-15x4-17x4-------------------------------------|
G|--------------------------------------------------------------------|
D|--------------------------------------------------------------------|
A|--------------------------------------------------------------------|
D|--------------------------------------------------------------------|

right after the second time
e|----------------------------|
B|----------------------------|
G|----------------------------|
D|----------------------------|
A|-----1414-1212-1010-99------|
D|----------------------------|

(The selfish machine)Some hammer-ons and pull-offs really easy to understand
e|------------------------------------------------------------------------|x2
B|15-12-11-12-11-12-15--12--11-12-11-12-11-12-15-12-17--------------------|
G|------------------------------------------------------------------------|
D|------------------------------------------------------------------------|
A|------------------------------------------------------------------------|
D|------------------------------------------------------------------------|



************************************

| /   slide up
| \   slide down
| h   hammer-on
| p   pull-off
| ~   vibrato
| +   harmonic
| x   Mute note
| b   Bend
| pb  Pre-bend
| br  Bend release
| pbr Pre-bend release
| brb Bend release bend

************************************

            
            
Suggest correction
Creating personal tab
Creating personal tab
You can edit any tab online and save it as your Personal.

You can edit, replace or remove any tab part or add personal notes – all changes will be seen only by you.

Personal tabs can be accessed anytime from any device, even offline.
Learn more »
comments
print report bad tab
3 comments total.
+1 reply
Mytokioromance 184 Dec 28, 2010 10:16 AM

wow this tab is amazing :o its probably the most accurate ptv tab on here, can you tab out I don't care if you're contagious? it would be greatly appreciated

0 reply
ello2005 10 Mar 07, 2015 05:24 PM

wads waesd

0 reply
jordan.fischer. 10 Mar 29, 2015 11:43 AM

Do more PTV tabs for sure

guest
You may want to rate the tab now too:
select rating
Wanna post a correction for this tab? Suggest correction