Oops, an error
Loading. Please wait.

Buscando El Camino tab

45 views 1 this week
no commentswrite comment
1 2 3 4 5
3 more votes to show rating
add to favorites
×
Save as Personal and add changes to this tab that will be seen only by you. Learn more ›
×
You can save this tab as Personal to edit and correct it or add notes. All changes will be seen only by you. Learn more »
launch autoscroll
font size
0
reset
how to read this tab
guitar tuner
edit
Autoscroll
slow
fast
+/-
esc
set tempo
stop
3|-----------------------------------|------------9-7-6-7-6----------|-
4|----7-11---7-11---7-11---7-11------|----7-11-x3-------------9-7-6-|
5|--9-------9-------9-------9----9-8-|-9--------------------------------|


3|------------6-4-6-7-6-4-----------------------------
4|---4-7-x3-----------------------------------------
5|-5---------------------------------------------

C#                 E                                       D
Cuantas veces te has sentido solo cuantas veces te han fallado los demas
C#                 E                                       D
  Porque yo nunca encage del todo si del mundo espero un poco mas
(luego va esto)
Con distorsion
1|------------------
2|------------------
3|----7--7--6-----
4|----7--7--6-----
5|----5--5--4-----
6|-----------------

Limpio esta parte (meti el corazon en un cajon, etc)
1|----------------------------
2|----------------------------
3|---6--9--7----------------- esto es x2 creo
4|---6--9--7-----------------
5|---4--7--5----------------
6|----------------------------

Estribillo
C#                                            E
Me perdí buscando el camino y no me encuentro en ningún sitio
D                                                  C#        D E
Luchando por cambiar las cosas en el mundo en el que vivimos
C#                                        E
Juntos barreremos las hojas de los árboles caídos
D                                          C#
Y empezar una vida nueva con todo lo que respiro

pm
1|-------------------------------------------------------
2|-------------------------------------------------------
3|-------------------------------------------------------
4|------7-11--x6------------------------------------
5|----9----------------9--------------------------------
6|-------------------------------------------------------

          Y volver a empezar               tratando de encontrar
2|-----------------------------------------------------------------------
3|--7----7----7---7----7-----7----9----9-----9---9----9----9-----
4|----7----7----7---7----7-----7----9----9-----9---9----9----9-----
5|------5----5--------5-----5----------7----7----------7----7--------
6|--------------------------------------------------------------------

                      Un poco                de verdad
1|--------------------------------5----5---5--5----5----------
2|----------------------------------6----6---6--6----6-------
3|---7----7----7--7----7----7------6---6-------6-----6---
4|-----7----7----7--7----7----7--------------------------------
5|-------5----5--------5----5--------------------------------
6|-------------------------------------------------------


D
Usando el corazo
E
Como la saolucion

Solo
1|------------------------------|------------------------
2|------------------------------|----------------------
3|------------9-7-6-7-6---------|---------6-4-6-7-6-4-------
4|----7-11-x3-------------9-7-6-|--4-7-x3-------------7-6-
5|-9----------------------------|-5--------------------------9
6|-------------------repite y termina con el 9 de la quinta cuerda

El resto es solo repetir el tema saludos
Y el final

3:11min
Son los acordes c# e d c#

Espero que les guste el tema de pignoise
soy de Mendoza Argentina lindo lugar para vivi,
capaz que le escape a la letra es que no la entiendo mucho
 el idioma sepan disculpar
se lo dedico a  R_T.A
saludos leo  D3LM4S
cualquier cosa que este mal o pedir algun
tema mandarmelo a mi mail lmdv@

            
            
Suggest correction
Creating personal tab
Creating personal tab
You can edit any tab online and save it as your Personal.

You can edit, replace or remove any tab part or add personal notes – all changes will be seen only by you.

Personal tabs can be accessed anytime from any device, even offline.
Learn more »
Give kudos to tab author, rate the tab!
1 2 3 4 5
comments
print report bad tab
guest
Wanna post a correction for this tab? Suggest correction