Oops, an error
Loading. Please wait.

Como Soy tab

42 views 1 this week
no commentswrite comment
1 2 3 4 5
3 more votes to show rating
add to favorites
×
Save as Personal and add changes to this tab that will be seen only by you. Learn more ›
×
You can save this tab as Personal to edit and correct it or add notes. All changes will be seen only by you. Learn more »
launch autoscroll
font size
0
reset
how to read this tab
guitar tuner
edit
Autoscroll
slow
fast
+/-
esc
set tempo
stop
Este es el punteillo inicial intercalado con el bajo.

e----------------------------------------
B-0--1---3---1--0--1--1--1----1----1---3-
G----------------------------------------    Punteo 1
D----------------------------------------
A----------------------------------------
E----------------------------------------

    DO           SOL         LAm           SOL

e----------0-|-----------|-------------|---0-------
B-1--1--1----|3---1---3--|1---1---1--1-|----3--1--3
G------------|-----------|-------------|-----------    Punteo 2
D------------|-----------|-------------|-----------
A------------|-----------|-------------|-----------
E------------|-----------|-------------|-----------

     DO          SOL          LAm         SOL
e----------0-|-----------|-------------|0-------
B-1--1--1----|3---1---3--|1---1---1--1-|----3--1
G------------|-----------|-------------|--------
D------------|-----------|-------------|--------
A------------|-----------|-------------|--------
E------------|-----------|-------------|--------

     DO     SOL     LAm         FA
e--------|-------|--------|--------------
B--------|-------|--------|--------------
G----5---|-------|--------|--------------
D----5---|--5----|---7----|---3----------
A----3---|--5----|---7----|---3----------
E--------|--3----|---5----|---1----------

(También se puede tocar con acordes en quintas)


DO            SOL     LAm      SOL     FA
Yo que intento acertar la vuelvo a cagar y no tengo
  SOL
techo cuando todo va mal
DO SOL      LAm  SOL         FA
yo prefiero ignorar antes que luchar
                SOL
y es que me divierte fastidiarte
    LAm          SOL          FA
y no se como marcar la atencion
           SOL
Que me da la sensacion
       LAm     SOL          FA             SOL
de estar to el rato  fingiendo que hay corazon

ESTRIBILLO

        DO        SOL          LAm         SOL        FA
y ya estoy renunciando a la razon me hace ser calculador
                    SOL
y solo quiero ser bueno
         DO       SOL          LAm           SOL      FA
y es que soy un poquito encantador y otro poco lo peor
                     SOL             DO
y es que no tiene remedio ser como soy


DO,SOL,LAm,SOL,FA,SOL   (Mientras se repite el punteo 2)


DO         SOL     LAm     SOL      FA
ya si intento ceder pero es que no se y me pongo
SOL
burro nunca quiero entender
DO     SOL     LAm  SOL     FA
se que no tengo fe en esto que haceis
               SOL
y es que me derrumbo tengo miedo y no se
LAm         SOL       FA        SOL
como llamar la atencion como sentirme mejor
 LAm      SOL     FA               SOL
como poder decirte que no hay solucion


ESTRIBILLO

        DO        SOL          LAm         SOL        FA
y ya estoy renunciando a la razon me hace ser calculador
                    SOL
y solo quiero ser bueno
         DO       SOL          LAm           SOL      FA
y es que soy un poquito encantador y otro poco lo peor
                     SOL             DO
y es que no tiene remedio ser como soy


e-------|------|------|-----|-------|------|-----
B-------|------|------|-----|-------|------|-----
G---0---|------|------|-----|-------|--0---|-----
D---2---|--0---|--2---|---0-|----2--|--0---|-----
A-------|--2---|--0---|---2-|----2--|--2---|-----
E-------|------|------|-----|----1--|------|-----

Y ya estoy renunciando a la razón me haces ser calculador
y solo quiero ser bueno...

e-------|------|------|-----|-------|------|-----
B-------|------|------|-----|-------|------|-----
G---0---|------|------|-----|-------|--0---|-----
D---2---|--0---|--2---|---0-|----2--|--0---|-----
A-------|--2---|--0---|---2-|----2--|--2---|-----
E-------|------|------|-----|----1--|------|-----

y es que soy un poquito encantador y otro poco lo peor
y es que no tiene remedio ser como soy

(Mientras suena la segunda parte del estribillo: )


e------------------------
B-1----0------------------
G---------2---0---------0-
D----------------3---2----
A-------------------------
E-------------------------

Estribillo x4  (o x3 no estoy segura)


Un Abrazo!!

            
            
Suggest correction
Creating personal tab
Creating personal tab
You can edit any tab online and save it as your Personal.

You can edit, replace or remove any tab part or add personal notes – all changes will be seen only by you.

Personal tabs can be accessed anytime from any device, even offline.
Learn more »
Give kudos to tab author, rate the tab!
1 2 3 4 5
comments
print report bad tab
guest
Wanna post a correction for this tab? Suggest correction