Oops, an error
Loading. Please wait.

Como Un Loco Por Ti tab

67 views 12 this week
no commentswrite comment
1 2 3 4 5
3 more votes to show rating
add to favorites
×
Save as Personal and add changes to this tab that will be seen only by you. Learn more ›
×
You can save this tab as Personal to edit and correct it or add notes. All changes will be seen only by you. Learn more »
launch autoscroll
font size
0
reset
how to read this tab
guitar tuner
edit
Autoscroll
slow
fast
+/-
esc
set tempo
stop
Te la dedicoa ti mi niña que ha pesar de estar 11 meses juntitos
sigo estando como un loco por ti...ya queda poco..
GRACIAS por todo PAULA....:)

INTRO

La primera guitarra hace los acordes mientras la segunda
se mete el punteo

    G5                     D5
E||---------------------||---------------------||
B||---------------------||---------------------||
G||----------7777-7-5-4-||---------------------||
D||-55555555------------||----------7777-7-5-4-||
A||---------------------||-55555555------------||
E||---------------------||---------------------||

    E5                     C5
E||---------------------||---------------------||
B||---------------------||---------------------||
G||---------------------||---------------------||
D||----------9999-9-7-6-||----------5555-5-3-2-||
A||-77777777------------||-33333333------------||
E||---------------------||---------------------||

Verso

La primera parte del verso estan todos los acordes muteados
pero en la segunda parte hacen este riff

E||---------------------------------------||
B||---------------------------------------||
G||----------------------7----7----7----7-||
D||-55----5----5----5-55---55---55---55---||
A||-55-33---33---33-----------------------||
E||-33------------------------------------||
PM     ..   ..   ..   ..   ..   ..   ..

E||-----------------------------------------||
B||-----------------------------------------||
G||----9----9----9----9----5----5----5----5-||
D||-77---77---77---77---33---33---33---33---||
A||-----------------------------------------||
E||-----------------------------------------||
PM  ..   ..   ..   ..   ..   ..   ..  ..

G5                      D5                            E5
Entre signos de interrogacion aora vaga la buena intencion
                  C5
Pero sigo caminando porque ya no queda tanto
G5                       D5                                         E5
Estrellarme contra la pared la verda esque siempre se me dio muy bien
                    C5
Y Seguro que chocando ya lo estamos derrivando

Se repite la INTRO

Haora los acordes de la primera parte del verso estan muteados
en la segunda parte hacen este riff

E||-------------------------------------||
B||-------------------------------------||
G||-------------------77----7----7----7-||
D||-55----5----5----5-77----7----7----7-||
A||-55----5----5----5-55-55-5-55-5-55-5-||
E||-33-33-3-33-3-33-3-------------------||
PM     ..   ..   ..      ..   ..   ..

E||-------------------------------------||
B||-------------------------------------||
G||-99----9----9----9-55----5----5----5-||
D||-99----9----9----9-55----5----5----5-||
A||-77-77-7-77-7-77-7-33-33-3-33-3-33-3-||
E||-------------------------------------||
PM     ..   ..   ..      ..   ..   ..

G5                         D5                      E5
Las nubes no me dejan pensar y me altero con facilidad
                          C5
Y Aunque nunca estoy atento predico con el ejemplo
G5                      D5                         E5
Y de cara la improvisacion que nos guie mala desicion
                        C5
Y aunque no conoszo miedo ya soy presa de los nervios

PRECORO

C5                  E5             D5
Y haora que el sufrimiento me parece un juego
C5                    E5        D5
Cerrando bien los ojos para que entre el sueño

ESTRIBILLO

G5                 D5               E5
Mil flores para los errores que aveces yo cometo
        C5                       G5
Y que no hacer mas prometo pero soy lento
      D5            E5                      C5
Para los lamentos ya pronto me decido y te persigo
                    G5      D5        E5
Como un loco por ti Como un loco por ti
        C5          G5      D5        E5
Como un loco por ti como un loco por ti
        C5
Como un loco por ti

Se repite la INTRO

VERSO 2

Empiesa con un G5 y solo toca el bajo en la segunda parte
del verso todo lo demas esta muteado

G5
Entre signos de interrogacion Haora vaga la buena intencion
Pero sigo caminando porque ya no queda tanto
G5                       D5                                         E5
Estrellarme contra la pared la verda esque siempre se me dio muy bien
                    C5
Y Seguro que chocando ya lo estamos derrivando

PRECORO

C5                  E5             D5
Y haora que el sufrimiento me parece un juego
C5                    E5        D5
Cerrando bien los ojos para que entre el sueño

ESTRIBILLO

G5                 D5               E5
Mil flores para los errores que aveces yo cometo
        C5                       G5
Y que no hacer mas prometo pero soy lento
      D5            E5                      C5
Para los lamentos ya pronto me decido y te persigo y te maldigo pero
G5                 D5               E5
Mil flores para los errores que aveces yo cometo
        C5                       G5
Y que no hacer mas prometo pero soy lento
      D5            E5                      C5
Para los lamentos ya pronto me decido y te persigo como un loco por ti
G5   D5         E5         C5
Como un loco por ti como un loco por ti
G5   D5         E5         C5
Como un loco por ti como un loco por ti
G5      D5        E5        C5
Como un loco por ti como un loco por ti
G5      D5        E5        C5
Como un loco por ti como un loco por ti

            
            
Suggest correction
Creating personal tab
Creating personal tab
You can edit any tab online and save it as your Personal.

You can edit, replace or remove any tab part or add personal notes – all changes will be seen only by you.

Personal tabs can be accessed anytime from any device, even offline.
Learn more »
Give kudos to tab author, rate the tab!
1 2 3 4 5
comments
print report bad tab
guest
Wanna post a correction for this tab? Suggest correction